Oops, an error
Loading. Please wait.

Me Me Me Tab

version 1
version 1

Whole song

Interactive

6,333 views 1 this week
18 commentsread comments
1 2 3 4 5
x 9
add to favorites
launch autoscroll
font size
0
reset
how to read this tab
guitar tuner
Autoscroll
slow
fast
+/-
esc
set tempo
stop
Help us to improve Ultimate-Guitar.com Take our survey!
×
Author
KIDS IN GLASS HOUSES - ME ME ME
TABBED BY GEORGE WILLIAMS
STANDARD TUNING (EADBGE)

legend:

| b     bend
| r     return
| /     slide up
| \     slide down
| h     hammer on
| p     pull off
| *     pinch harmonic
| ~     tremolo
| ...   palm muted
| x     muted note
| (n)   optional note

I noticed there were no real tabs for this song on here, 
and i was bored during the holidays
(typical for a 14 year old) =] so this 
gave me about half an hours amusement 
whilst i worked it out... this isn't 
the kind of stuff i normally tab up, 
as you can see by my other tabs, it 
was still enjoyable, so give me some other 
songs you want tabbing up and i'll have a go...
anyway it's all there so just grab your guitar and off you go!
ratings, comments and corrections are all welcome, i hope you enjoy it and thanks for looking.

INTRO:

|-----7-----2---4---|
|-------------------|
|-------------------| x2, then continued in the background
|---6-----2---------|
|-4-----0-----0-----|
|-------------------|

VERSE:

|-11-12-12-11-11-12-11-16--11-11-12-11-12-11-12--|
|------------------------------------------------|
|------------------------------------------------|
|------------------------------------------------|
|------------------------------------------------|
|------------------------------------------------|

|-11-12-12-11-11-12-11-16--11--11--11-11-12-|
|-------------------------------------------|
|-------------------------------------------|
|-------------------------------------------|
|-------------------------------------------|
|-------------------------------------------|

|-11-12-12-11-11-12-11-16--11-11-12-11-12-11-12--|
|------------------------------------------------|
|------------------------------------------------|
|------------------------------------------------|
|------------------------------------------------|
|------------------------------------------------|
                          |1.only
|-11-12-12-11-11-12-11-16-|-16-21-16-16-11-12-7--|
|-------------------------|----------------------|
|-------------------------|----------------------| whole thing x2
|-------------------------|----------------------| but ending on the first
|-------------------------|----------------------| time only
|-------------------------|----------------------|

PRECHORUS:
               |1.2.3.      |4.
|----------/12-|-9-7-9p7h9--|-9-7-9p7----|
|-10-9---------|------------|---------10-|
|------9-------|------------|------------| x4
|--------11----|------------|------------|
|--------------|------------|------------|
|--------------|------------|------------|

CHORUS:

  Esus2  B     Esus2  A           Esus2  B     Esus2   F#sus2
|-------------------------------|------------------------------|
|-7--7---------7--7------5------|-7--7---------7--7----9---9---|
|-9--9---8--8--9--9---6--6--(6)-|-9--9---8--8--9--9---11--11---| x4
|-9--9---9--9--9--9---7--7--(7)-|-9--9---9--9--9--9---11--11---|
|-7--7---9--9--7--7---7--7--(7)-|-7--7---9--9--7--7----9---9---|
|--------7--7---------5--5--(5)-|--------7--7------------------|

BREAK:

|------------------------|
|------------------------|
|-9-9--8-8--9-9--11-11\--|
|------------------------| x1
|-7-7--7-7--7-7---7--7\--|
|------------------------|





BRIDGE:

  E5    Eb5   E5   Esus2
|-------------------------|
|-------------------------|
|-9--9--8--8--9--9-11-11--| x4
|-9--9--9--9--9--9--9--9--|
|-7--7--7--7--7--7--7--7--|
|-------------------------|



BREAK:

  E5    B     Esus2 A
|-----------------------------|
|-------------7--7-----5------|
|-9--9--8--8--9--9--6--6--(6)-| x2
|-9--9--9--9--9--9--7--7--(7)-|
|-7--7--9--9--7--7--7--7--(7)-|
|-------7--7--------5--5--(5)-|

FINAL CHORUS:

 F#sus2  C#    F#sus2  B
|----------------------------|
|--9--9----------9--9-----7--|
|-11-11--10-10--11-11--8--8--| x8
|-11-11--11-11--11-11--9--9--|
|--9--9--11-11---9--9--9--9--|
|---------9--9---------7--7--|

ENDING:

 F#sus2  C#  B
|---------------|
|--9---------7--|
|-11----10---8--| x1
|-11----11---9--|
|--9----11---9--|
|--------9---7--|

SONG ORDER:
------------

INTRO
VERSE
PRECHORUS
CHORUS
BREAK
VERSE
PRECHORUS
CHORUS
BRIDGE
PRECHORUS
BREAK
FINAL CHORUS
ENDING


AND THATS IT FOLKS...
THANKS FOR LOOKING AND I HOPE YOU LIKE IT =]
Suggest correction
comments
print report bad tab
18 comments total. Showing first comments.
0 reply
trivium99 803 Mar 02, 2008 05:36 AM

awesome (y)

0 reply
guyalexanderr 362 May 02, 2008 11:21 PM

wow your pretty good for a 14 year old ;D

+1 reply
the.poison 10 May 05, 2008 05:17 PM

Awsome tab! Would love to see you tab some more kids and glass houses stuff :)

guest
You may want to rate the tab now too:
select rating
Wanna post a correction for this tab? Suggest correction