Oops, an error
Loading. Please wait.

Raise Hell bass

1,407 views 1 this week
5 commentsread comments
1 2 3 4 5
x 4
add to favorites
×
Save as Personal and add changes to this tab that will be seen only by you. Learn more ›
×
You can save this tab as Personal to edit and correct it or add notes. All changes will be seen only by you. Learn more »
launch autoscroll
font size
0
reset
guitar tuner
edit
Autoscroll
slow
fast
+/-
esc
set tempo
stop
Author
Difficulty
Artist: Kids In Glass Houses
Bassist: Andrew 'Shay' Sheehy
Song: Raise Hell
Album: E-Pocalypse
Tabbed By: Lewis [lewis_mason21@hotmail.com]

This took a while for me to work out, but I'm quite pleased with it and I think it's pretty accurate!

Key:
~: Let Note Ring
/: Slide Up
h: Hammer On
p: Pull Off

[Tuning: Standard - E,A,D,G]


Verse One: [Note: Come in when Aled sings "And I'm dying..."]
("Well don't worry" ... "How normal you are")
G|---------------------------------------------------------------------------------|
D|---------------------------------------------------------------------------------|
A|-3-3-3-3-3-3-3p2h3p2-3-3-3-3-3-3-3p2h3p2-----------------------------------------|
E|-----------------------------------------5-5-5-5-5-5-5p4h5p4-5-5-5-5-5-5-5p4h5p4-|

G|----------------------------------------------------------------------------|
D|----------------------------------------------------------------------------|
A|-8-8-8-8-8-8-8p7h8p7-5-5-5-5-5-5-5p4h5p4-8-8-8-8-8-8-8p7h8p7-5-5-5-5-5-5-55-|
E|----------------------------------------------------------------------------|


Chorus:
("Perfect examples of" ... "People should be")
G|-------------------------------------------|
D|-------------------------------------------|
A|-8~---5~---3-3-3-3-3-3-3-3-----------------|
E|---------------------------5-5-5-5-5-5-5-5-|

G|-----------|
D|-----------|
A|-8~---5~---|
E|-----------|

G|-----------------------------------------------------------------------------------------------------|
D|-----------------------------------------------------------------------------------------------------|
A|-3-3-3-3-3-3-3p2h3p2-3-3-3-3-3-3-3p2h3p2/12-12-12-12-12-12-12p11h12p11-12-12-12-12-12-12-12p11h12p11-|
E|-----------------------------------------------------------------------------------------------------|


Verse Two:
("Well I see the way" ... "How normal you are")
G|---------------------------------------------------------------------------------|
D|---------------------------------------------------------------------------------|
A|-3-3-3-3-3-3-3p2h3p2-3-3-3-3-3-3-3p2h3p2-----------------------------------------|
E|-----------------------------------------5-5-5-5-5-5-5p4h5p4-5-5-5-5-5-5-5p4h5p4-|

G|----------------------------------------------------------------------------|
D|----------------------------------------------------------------------------|
A|-8-8-8-8-8-8-8p7h8p7-5-5-5-5-5-5-5p4h5p4-8-8-8-8-8-8-8p7h8p7-5-5-5-5-5-5-55-|
E|----------------------------------------------------------------------------|


Chorus:
("Perfect examples of" ... "Perfect examples")
G|-------------------------------------------|
D|-------------------------------------------|
A|-8~---5~---3-3-3-3-3-3-3-3-----------------|
E|---------------------------5-5-5-5-5-5-5-5-|

G|-------------------------------------------|
D|-------------------------------------------|
A|-8~---5~---3-3-3-3-3-3-3-3-----------------|
E|---------------------------5-5-5-5-5-5-5-5-|

G|-------|
D|-------|
A|-8~----|
E|-------|


Bridge: [Note: Come in around 2:25-2:27, rest for the vocal part]
("Glance around the room" ... "How normal you are")
G|-----------------------------------------------------------------|
D|-----------------------------------------------------------------|
A|-3-3-3-3-3-3-3-3-3-3-3-3-3-3-3-3---------------------------------
E|---------------------------------5-5-5-5-5-5-5-5-5-5-5-5-5-5-5-5-

G|---------------------------------------------------------------|
D|---------------------------------------------------------------|
A|-8-8-8-8-8-8-8-8-8-8-8-8-8-8-8-8-5-5-5-5-5-5-5-5-5-5-5-5-5-5-5-|
E|---------------------------------------------------------------|

G|----------REST----------|
D|----------REST----------|
A|----------REST----------|
E|----------REST----------|


Chorus:
("Perfect examples of" ... "Perfect examples")
G|-------------------------------------------|
D|-------------------------------------------|
A|-8~---5~---3-3-3-3-3-3-3-3-----------------|
E|---------------------------5-5-5-5-5-5-5-5-|

G|-------------------------------------------|
D|-------------------------------------------|
A|-8~---5~---3-3-3-3-3-3-3-3-----------------|
E|---------------------------5-5-5-5-5-5-5-5-|

G|-----------|
D|-----------|
A|-8~---5~---|
E|-----------|


Outro:
G|-----------------------------------------------------------------------------------|
D|-----------------------------------------------------------------------------------|
A|-3-3-3-3-3-3-3p2h3p2-3-3-3-3-3-3-3p2h3p2-------------------------------------------|
E|-----------------------------------------5-5-5-5-5-5-5p4h5p4-5-5-5-5-5-5-5p4h5p4-5-|

            
            
Suggest correction
Creating personal tab
Creating personal tab
You can edit any tab online and save it as your Personal.

You can edit, replace or remove any tab part or add personal notes – all changes will be seen only by you.

Personal tabs can be accessed anytime from any device, even offline.
Learn more »
comments
print report bad tab
5 comments total. Showing first comments.
0 reply
dylan 182 10 Sep 19, 2007 08:02 AM

fantastic! i luv that song :D, uve made me very happy :D

0 reply
goobie_bassist 62 Dec 23, 2007 12:20 PM

sounds abit off

+1 reply
LewisMasonx 1,741 Dec 26, 2007 07:42 AM

Yeahh I've actually realised that you can play the verses without the pull-offs, just hit the same root note instead, so
3-3-3333...etc. That might sound a bit better for the verses.

guest
You may want to rate the tab now too:
select rating
Wanna post a correction for this tab? Suggest correction