Oops, an error
Loading. Please wait.

Saturday bass

version 1
version 1

Whole song

Interactive

4,215 views 3 this week
2 commentsread comments
1 2 3 4 5
x 4
add to favorites
×
Save as Personal and add changes to this tab that will be seen only by you. Learn more ›
×
You can save this tab as Personal to edit and correct it or add notes. All changes will be seen only by you. Learn more »
launch autoscroll
font size
0
reset
guitar tuner
edit
Autoscroll
slow
fast
+/-
esc
set tempo
stop
Author
Tabbed By :TN

Its quite a simple tab, and i think this is pretty much right.

verse 1  0:15
G|---------------------------------------------------------------------------|
D|----------------------------88-5-----------88-5-------------55-3-----------|
A|-------------------66-66-66-------66-66-66---------33-33-33-------33-33-33-|
E|-44-------66---------------------------------------------------------------|

G|--------------------------------------------------------------------------|
D|-55-3---------------------------------------------------------------------|
A|--------------------------------------------------------------------------|
E|--------44--------66666666------------------------------------------------|


Chorus
G|--------------------------------------------------------------------------|
D|--------------------------------------------------------------------------|
A|-6666666666666666-3333333333333333----------------------------------------|
E|-----------------------------------4444444444444444-6666666666666666------|


verse 2
G|---------------------------------------------------------------------------|
D|----------88-5-----------88-5------------55-3-----------55-3---------------|
A|-66-66-66-------66-66-66--------33-33-33-------33-33-33--------------------|
E|--------------------------------------------------------------444444444444-|

G|--------------------------------------------------------------------------|
D|--------------------------------------------------------------------------|
A|--------------------------------------------------------------------------|
E|4444-6666666666666666-4444444444444444-66666666---------------------------|


Chorus
G|--------------------------------------------------------------------------|
D|--------------------------------------------------------------------------|
A|-6666666666666666-3333333333333333----------------------------------------|
E|-----------------------------------4444444444444444-6666666666666666------|


bridge
G|--------------------------------------------------------------------------|
D|--------------------------------------------------------------------------|
A|-3333333333333333------------------3333333333333333------------------6~---|
E|------------------4444444444444444------------------6666666666666666------|

G|--------------------------------------------------------------------------|
D|--------------------------------------------------------------------------|
A|-33333-333-33-------------------------------------------------------------|
E|--------------4444444444444444-66666666-----------------------------------|


Chorus
G|--------------------------------------------------------------------------|
D|--------------------------------------------------------------------------|
A|-6666666666666666-3333333333333333------------------------------------3~--|
E|-----------------------------------4444444444444444-6666666666666666------|
Suggest correction
Creating personal tab
Creating personal tab
You can edit any tab online and save it as your Personal.

You can edit, replace or remove any tab part or add personal notes – all changes will be seen only by you.

Personal tabs can be accessed anytime from any device, even offline.
Learn more »
comments
print report bad tab
2 comments total.
0 reply
mikee-rascal 94 Aug 20, 2008 12:14 PM

good tab sounds right to me

0 reply
jiggy182 92 Sep 07, 2008 12:02 PM

Good tab but wrong in the intro
verse 1 0:15
G|---------------------------------------------------------------------------|
D|----------------------------88-5-----------88-5-------------55-3-----------|
A|-------------------66-66-66-------66-66-66---------33-33-33-------33-33-33-|
E|-44-------66---------------------------------------------------------------|

You put thAT...but he goes upto the 10th fret the 2nd time round like this...

verse 1 0:15
G|---------------------------------------------------------------------------|
D|----------------------------88-5-----------1010-5-------------55-3-----------|
A|-------------------66-66-66-------66-66-66---------33-33-33-------33-33-33-|
E|-44-------66---------------------------------------------------------------|

guest
You may want to rate the tab now too:
select rating
Wanna post a correction for this tab? Suggest correction