Oops, an error
Loading. Please wait.

Youngblood Let It Out bass

version 1
version 1

Whole song

Interactive

1,834 views 1 this week
1 commentread comment
1 2 3 4 5
1 last vote to show rating
add to favorites
×
Save as Personal and add changes to this tab that will be seen only by you. Learn more ›
×
You can save this tab as Personal to edit and correct it or add notes. All changes will be seen only by you. Learn more »
launch autoscroll
font size
0
reset
guitar tuner
edit
Autoscroll
slow
fast
+/-
esc
set tempo
stop
Kids in Glass Houses: Young blood (let it out)

Bass Tab
By Gog

The guitar plays the intro, then the bass comes in out of time so you'll have to 
figure that bit out for yourself :]

Intro/Main riff
G|---------------------------------------------------------------------------|
D|---------------------------------------------------------------------------|
A|-7-7-7-7-7-7-7-7-7-7-7-7-7-7-7-7-x2-4-4-4-4-4-4-4-4-4-4-4-4-4-4-4-4--------|
E|---------------------------------------------------------------------------|

G|--------------------------------------------------|
D|--------------------------------------------------|
A|-12-12-12-12-12-12-12-12-12-12-12-12-12-12-12-12--|
E|--------------------------------------------------|

G|---------------------------------------------------------------------------|
D|---------------------------------------------------------------------------|
A|-7-7-7-7-7-7-7-7-7-7-7-7-7-7-7-7-x2-4-4-4-4-4-4-4-4-4-4-4-4-4-4-4-4--------|
E|---------------------------------------------------------------------------|

G|---------------------------------|
D|---------------------------------|
A|-0-0-0-0-0-0-0-0-0-0-0-0-0-0-0-0-|  x2
E|---------------------------------|

Chorus
G|---------------------------------------------------------------------------|
D|---------------------------------------------------------------------------|
A|-7-7-7-7-7-7-7-7-7-7-7-7-7-7-7-7-x2-4-4-4-4-4-4-4-4-4-4-4-4-4-4-4-4--------|
E|---------------------------------------------------------------------------|

G|---------------------------------|
D|---------------------------------|
A|---------------------------------|  x2
E|-5-5-5-5-5-5-5-5-5-5-5-5-5-5-5-5-|

Main riff x3
Chorus x2
Then...

Bridge
G|-----------------------|
D|-----------------------|
A|-2-------2-4-----------|    x4
E|-------5---------------|

G|---------------------------------|
D|---------------------------------|
A|-4-4-4-4-4-4-4-4-4-4-4-4-4-4-4-4-|    x6
E|---------------------------------|

G|---------------------------------------------------------------------------|
D|---------------------------------------------------------------------------|
A|-7-7-7-7-7-7-7-7-7-7-7-7-7-7-7-7-x2-4-4-4-4-4-4-4-4-4-4-4-4-4-4-4-4--------|
E|---------------------------------------------------------------------------|

G|---------------------------------|
D|---------------------------------|
A|-0-0-0-0-0-0-0-0-0-0-0-0-0-0-0-0-|  x2
E|---------------------------------|

Chorus x2
Main Riff x1

End on E


Enjoy!  :]

            
            
Suggest correction
Creating personal tab
Creating personal tab
You can edit any tab online and save it as your Personal.

You can edit, replace or remove any tab part or add personal notes – all changes will be seen only by you.

Personal tabs can be accessed anytime from any device, even offline.
Learn more »
Give kudos to tab author, rate the tab!
1 2 3 4 5
comments
print report bad tab
1 comment total.
0 reply
hillsy945 136 Nov 18, 2010 03:20 AM

Chorus is all wrong. I think it's either...

0 - 9 - 5 on the E string...or it might be in dropped D.

guest
Wanna post a correction for this tab? Suggest correction