Oops, an error
Loading. Please wait.

Apparitions Of Melody bass

749 views 1 this week
3 commentsread comments
1 2 3 4 5
x 3
add to favorites
×
Save as Personal and add changes to this tab that will be seen only by you. Learn more ›
×
You can save this tab as Personal to edit and correct it or add notes. All changes will be seen only by you. Learn more »
launch autoscroll
font size
0
reset
guitar tuner
edit
Autoscroll
slow
fast
+/-
esc
set tempo
stop
Author
_______________________________ 
|Artist: Kids In The Way       |
|Song: Apparations Of Melody   |
|Album: Apparations Of Melody  |
|______________________________|


Intro: 
Play x2

g|--------------------------------------------------------------------|
d|--------------------------------------------------------------------|
a|--4-4-4-4-4-4-4-4-4-4-4-4-4-4-4-4--2-2-2-2-2-2-2-2------------------|
e|----------------------------------------------------2-2-2-2-2-2-2-2-|

Verse: (Same As Intro)
Play x4

g|--------------------------------------------------------------------|
d|--------------------------------------------------------------------|
a|--4-4-4-4-4-4-4-4-4-4-4-4-4-4-4-4--2-2-2-2-2-2-2-2------------------|
e|----------------------------------------------------2-2-2-2-2-2-2-2-|

Chorus:
Play x4

g|-------------------------------------------------|
d|-------------------------------------------------|
a|7x7x7x7x777x7x7-6x6x6x6x666x6x6-4x4x4x4x444x4x4--|
e|-------------------------------------------------|

Intro x2



Verse 2
Play x4
g|-----------------------------------------|
d|-----------------------------------------|
a|-4444444444444-2222222/9999999-----------|
e|-----------------------------------------|

Chorus x4

Bridge:
Come in When he starts screaming

g|------------------------------------------------------------|
d|------------------------------------------------------------|
a|---4-----------------4----------4------------2------4-------|
e|-------------2------------2----------2----------------------|


Play This When there's no drums, and hes just strumming the chords

g|-----------------------------------------------------|
d|-----------------------------------------------------|
a|-----4--------2-------7--------4--------2-----7------|
e|-----------------------------------------------------|

Chorus x2
Intro x5


Thanks to gofusiesbass09 for suggestions on Verse 2

            
            
Suggest correction
Creating personal tab
Creating personal tab
You can edit any tab online and save it as your Personal.

You can edit, replace or remove any tab part or add personal notes – all changes will be seen only by you.

Personal tabs can be accessed anytime from any device, even offline.
Learn more »
Give kudos to tab author, rate the tab!
1 2 3 4 5
comments
print report bad tab
3 comments total.
0 reply
gofusiesbass09 128 May 25, 2006 07:23 AM

on the second time you play the verse u play this instead


G-----------------------------------------
D-----------------------------------------
A-4444444444444-2222222/9999999-----------
E-----------------------------------------

0 reply
Addero 283 Oct 13, 2006 01:31 PM

Sweet tab, man.
My band's playing this, and this definitely helped.

0 reply
RED FAN #1 85 Aug 08, 2009 11:37 PM

great, man

guest
You may want to rate the tab now too:
select rating
Wanna post a correction for this tab? Suggest correction