Oops, an error
Loading. Please wait.

Fiction bass

version 1
version 1

Whole song

Interactive

1,150 views 1 this week
no commentswrite comment
1 2 3 4 5
3 more votes to show rating
add to favorites
×
Save as Personal and add changes to this tab that will be seen only by you. Learn more ›
×
You can save this tab as Personal to edit and correct it or add notes. All changes will be seen only by you. Learn more »
launch autoscroll
font size
0
reset
guitar tuner
edit
Autoscroll
slow
fast
+/-
esc
set tempo
stop
Title: Fiction
Artist: Kids in the Way
Tabbed by: Zachary Vasbinder (DeadFetalMonkey)

Tuning: Drop D(D,A,D,G)

 .= Palm Mute
 /= Slide up
 \= Slide down
 p= Pull
 x= Dead Note
 h= hammer on

0:00 (Guitar Intro)
G-----------------------------------------|
D-----------------------------------------|
A-----------------------------------------|
D-----------------------------------------|x2

0:13 (verse)
G-------------------------------------------------------------------------|
D-------------------------------------------------------------------------|
A-------------------------------------------------------------------------|
D-x-x-x-x-3-3-3-3-3-3-5-5-6-6-6-6-6-6-6-6\1-1-1-1-1-1-1-1/8-8-8-8-8-8-8-8-|
  x x x x . . . . . . . . . . . . . . . . . . . . . . . . . . . . . . . .

0:20
G-----------------------------------------------------------------|
D-----------------------------------------------------------------|
A-----------------------------------------------------------------|
D-3-3-3-3-3-3-5-5-6-6-6-6-6-6-6-6\1-1-1-1-1-1-1-1/8-8-8-8-8-8-8-8-|
  . . . . . . . . . . . . . . . . . . . . . . . . . . . . . . . .

0:27
G-----------------------------------------------------------------|
D-----------------------------------------------------------------|
A-----------------------------------------------------------------|
D-3-3-3-3-3-3-5-5-6-6-6-6-6-6-6-6\1-1-1-1-1-1-1-1/8-8-8-8-8-8-8-8-|
  . . . . . . . . . . . . . . . . . . . . . . . . . . . . . . . .

0:33                                        Slowly release palm mute
G-------------------------------------------------------------------|
D-------------------------------------------------------------------|
A-------------------------------------------------------------------|
D-3-3-3-3-3-3-5-5-6-6-6-6-6-6-6-6\1-1-1-1-1-1-1-1/8-8-8-8-8-8-8-8---|
  . . . . . . . . . . . . . . . . . . . . . . . . . . . .

0:40 (Chorus)
G--------------------------------------|
D--------------------------------------|
A--8--8--8--7-6-6-6-6-1-1-1/3----------|
D-----------------------------3-3-3-3--|x2

0:54 (Pre-verse)
G-----------------------------------------|
D-----------------------------------------|
A-----------------------------------------|
D-----------------------------------------|

0:57 (Verse)
G-------------------------------------------------------------------------|
D-------------------------------------------------------------------------|
A-------------------------------------------------------------------------|
D-x-x-x-x-3-3-3-3-3-3-5-5-6-6-6-6-6-6-6-6\1-1-1-1-1-1-1-1/8-8-8-8-8-8-8-8-|
  x x x x . . . . . . . . . . . . . . . . . . . . . . . . . . . . . . . .

1:03
G-----------------------------------------------------------------|
D-----------------------------------------------------------------|
A-----------------------------------------------------------------|
D-3-3-3-3-3-3-5-5-6-6-6-6-6-6-6-6\1-1-1-1-1-1-1-1/8-8-8-8-8-8-8-8-|
  . . . . . . . . . . . . . . . . . . . . . . . . . . . . . . . .

1:10
G-----------------------------------------------------------------|
D-----------------------------------------------------------------|
A-----------------------------------------------------------------|
D-3-3-3-3-3-3-5-5-6-6-6-6-6-6-6-6\1-1-1-1-1-1-1-1/8-8-8-8-8-8-8-8-|
  . . . . . . . . . . . . . . . . . . . . . . . . . . . . . . . .

1:17                                         Slowly release palm mute
G-------------------------------------------------------------------|
D-------------------------------------------------------------------|
A-------------------------------------------------------------------|
D-3-3-3-3-3-3-5-5-6-6-6-6-6-6-6-6\1-1-1-1-1-1-1-1/8-8-8-8-8-8-8-8---|
  . . . . . . . . . . . . . . . . . . . . . . . . . . . . . . . .

1:23 (Chorus)
G--------------------------------------|
D--------------------------------------|
A--8--8--8-7--6-6-6-6-1-1-1/3----------|
D-----------------------------3-3-3-3--|x4

1:50 (Bridge)
G-----------------------|
D-----------------------|
A-----------------------|
D--3~--1~----8~----3~---|

2:04 
G--------------------------|
D--------------------------|
A--------------------------|
D-3-3-3-3-3------1-1-1-1-1-|

2:09
G----------------------------------------------------|
D----------------------------------------------------|
A-xx-1-1-1-1-1-xx-xx-3-3-3-3-3-3-3-3-4-4-4-4-3-3-3-3-|
D-xx-----------xx-xx---------------------------------|

2:17 (Pre-chorus)
G-----------------------------------------|
D-----------------------------------------|
A-----------------------------------------|
D-----------------------------------------|

2:23 (Chorus)
G--------------------------------------|
D--------------------------------------|
A--8--8--8--7-6-6-6-6-1-1-1/3----------|
D-----------------------------3-3-3-3--|

2:50 (End)
G------------------|
D------------------|
A-1-1-1/3----------|
D---------3-3-3-3--|x3, hold last note
                        on the third time

The end! Pretty simple song.

            
            
Suggest correction
Creating personal tab
Creating personal tab
You can edit any tab online and save it as your Personal.

You can edit, replace or remove any tab part or add personal notes – all changes will be seen only by you.

Personal tabs can be accessed anytime from any device, even offline.
Learn more »
Give kudos to tab author, rate the tab!
1 2 3 4 5
comments
print report bad tab
guest
You may want to rate the tab now too:
select rating
Wanna post a correction for this tab? Suggest correction