Oops, an error
Loading. Please wait.

Free tab

154 views 3 this week
1 commentread comment
1 2 3 4 5
1 last vote to show rating
add to favorites
×
Save as Personal and add changes to this tab that will be seen only by you. Learn more ›
×
You can save this tab as Personal to edit and correct it or add notes. All changes will be seen only by you. Learn more »
launch autoscroll
font size
0
reset
how to read this tab
guitar tuner
edit
Autoscroll
slow
fast
+/-
esc
set tempo
stop
[Intro]

Chords:

Am G C F x4

E|--0-3------3-0-------0---------1------|
B|--1--------0---------1-3-------1-1----|
G|--2--------0---------0---------2------|
D|--2--------0---------2---------3------| x4
A|--0--------2---------3---------3------|
E|--0--------3---------0---------1------|

(Played before the verse at the end of the intro.)
E|------------|
B|------------|
G|--2-2-2-2---|
D|------------|
A|------------|
E|------------|

Bass-ish:

(Played after you've played the chords two times.)
E|--------------------------|---------------------------|
B|--------------------------|---------------------------|
G|--------------------------|---------------------------| x2
D|--------------------------|---------------------------| 
A|--------------------------|---------------------------|
E|--1-5---5-3---3-8---8-1---|--1-5---5-3---3-8---8-1----|

[Verse]

Repeated Guitar melody:

E|-----------------------------------------------|-------------------------------------------------|
B|-----------------------------------------------|-------------------------------------------------|
G|-5-5-5-5-5-\-4-4-4-4-4-/-9-9-9-9-9-\-2-2-2-2-2-|-5-5-5-5-5-\-4-4-4-4-4-/-9-9-9-9-9-\--2-2-2-2-2--| x2
D|-----------------------------------------------|-------------------------------------------------|
A|-----------------------------------------------|-------------------------------------------------|
E|-----------------------------------------------|-------------------------------------------------|

Bass-ish:

E|--------------------------|---------------------------|
G|--------------------------|---------------------------|
G|--------------------------|---------------------------|
D|--------------------------|---------------------------| x2
A|--------------------------|---------------------------|
E|--1-5---5-3---3-8---8-1---|--1-5---5-3---3-8---8-1----|

[Chorus]

Repeated Guitar melody:

E|-----------------------------------------------|-------------------------------------------------|
B|-----------------------------------------------|-------------------------------------------------|
G|-5-5-5-5-5-\-4-4-4-4-4-/-9-9-9-9-9-\-2-2-2-2-2-|-5-5-5-5-5-\-4-4-4-4-4-/-9-9-9-9-9-\--2-2-2-2-2--| x2
D|-----------------------------------------------|-------------------------------------------------|
A|-----------------------------------------------|-------------------------------------------------|
E|-----------------------------------------------|-------------------------------------------------|

Bass-ish:

E|--------------------------|---------------------------|
G|--------------------------|---------------------------|
G|--------------------------|---------------------------|
D|--------------------------|---------------------------| x2
A|--------------------------|---------------------------|
E|--1-5---5-3---3-8---8-1---|--1-5---5-3---3-8---8-1----|

Main Melody:

E|--------------------------------------|--------------------------------------------------|
B|---------------10---------------------|--------------------------------------------------|
G|--------9h12-9----12-9----9-----------|--------------------------------------9-----------|
D|--12-10----------------12---12-10-----|--------10---12b14--12b14--10---10-12---12-12-10--| x2
A|----------------------------------12--|--10h12-------------------------------------------|
E|--------------------------------------|--------------------------------------------------|

[Breakdown]

Repeated Guitar melody:

E|-----------------------------------------------|-------------------------------------------------|
B|-----------------------------------------------|-------------------------------------------------|
G|-5-5-5-5-5-\-4-4-4-4-4-/-9-9-9-9-9-\-2-2-2-2-2-|-5-5-5-5-5-\-4-4-4-4-4-/-9-9-9-9-9-\--2-2-2-2-2--| x2
D|-----------------------------------------------|-------------------------------------------------|
A|-----------------------------------------------|-------------------------------------------------|
E|-----------------------------------------------|-------------------------------------------------|

Bass-ish:

E|--------------------------|---------------------------|
G|--------------------------|---------------------------|
G|--------------------------|---------------------------|
D|--------------------------|---------------------------| x2
A|--------------------------|---------------------------|
E|--1-5---5-3---3-8---8-1---|--1-5---5-3---3-8---8-1----|

[Verse]

Repeated Guitar melody:

E|-----------------------------------------------|-------------------------------------------------|
B|-----------------------------------------------|-------------------------------------------------|
G|-5-5-5-5-5-\-4-4-4-4-4-/-9-9-9-9-9-\-2-2-2-2-2-|-5-5-5-5-5-\-4-4-4-4-4-/-9-9-9-9-9-\--2-2-2-2-2--| x2
D|-----------------------------------------------|-------------------------------------------------|
A|-----------------------------------------------|-------------------------------------------------|
E|-----------------------------------------------|-------------------------------------------------|

Bass-ish:

E|--------------------------|---------------------------|
G|--------------------------|---------------------------|
G|--------------------------|---------------------------|
D|--------------------------|---------------------------| x2
A|--------------------------|---------------------------|
E|--1-5---5-3---3-8---8-1---|--1-5---5-3---3-8---8-1----|

[Chorus 2]

Repeated Guitar melody:

E|-----------------------------------------------|-------------------------------------------------|
B|-----------------------------------------------|-------------------------------------------------|
G|-5-5-5-5-5-\-4-4-4-4-4-/-9-9-9-9-9-\-2-2-2-2-2-|-5-5-5-5-5-\-4-4-4-4-4-/-9-9-9-9-9-\--2-2-2-2-2--| x4
D|-----------------------------------------------|-------------------------------------------------|
A|-----------------------------------------------|-------------------------------------------------|
E|-----------------------------------------------|-------------------------------------------------|

Bass-ish:

E|--------------------------|---------------------------|
G|--------------------------|---------------------------|
G|--------------------------|---------------------------|
D|--------------------------|---------------------------| x4
A|--------------------------|---------------------------|
E|--1-5---5-3---3-8---8-1---|--1-5---5-3---3-8---8-1----|

Main Melody:

E|--------------------------------------|--------------------------------------------------|
B|---------------10---------------------|--------------------------------------------------|
G|--------9h12-9----12-9----9-----------|--------------------------------------9-----------|
D|--12-10----------------12---12-10-----|--------10---12b14--12b14--10---10-12---12-12-10--| x4
A|----------------------------------12--|--10h12-------------------------------------------|
E|--------------------------------------|--------------------------------------------------|

[Ending]

Repeated Guitar melody:

E|-----------------------------------------------|-------------------------------------------------|
B|-----------------------------------------------|-------------------------------------------------|
G|-5-5-5-5-5-\-4-4-4-4-4-/-9-9-9-9-9-\-2-2-2-2-2-|-5-5-5-5-5-\-4-4-4-4-4-/-9-9-9-9-9-\--2-2-2-2-2--| x2
D|-----------------------------------------------|-------------------------------------------------|
A|-----------------------------------------------|-------------------------------------------------|
E|-----------------------------------------------|-------------------------------------------------|

Bass-ish:

E|--------------------------|---------------------------|
G|--------------------------|---------------------------|
G|--------------------------|---------------------------|
D|--------------------------|---------------------------| x2
A|--------------------------|---------------------------|
E|--1-5---5-3---3-8---8-1---|--1-5---5-3---3-8---8-1----|

************
| b - bend
| v or ~ - vibrato
| / - slide up
| \ - slide down
| h - hammer on
| p - pull of
************

            
            
Suggest correction
Creating personal tab
Creating personal tab
You can edit any tab online and save it as your Personal.

You can edit, replace or remove any tab part or add personal notes – all changes will be seen only by you.

Personal tabs can be accessed anytime from any device, even offline.
Learn more »
Give kudos to tab author, rate the tab!
1 2 3 4 5
comments
print report bad tab
1 comment total.
0 reply
icerilakkumar1 35 Aug 28, 2017 12:47 AM

lol this is a lil much

guest
You may want to rate the tab now too:
select rating
Wanna post a correction for this tab? Suggest correction