Oops, an error
Loading. Please wait.

Takeshi solo tab

version 1
version 1

Solo

Whole song

448 views 1 this week
1 commentread comment
1 2 3 4 5
2 more votes to show rating
add to favorites
×
Save as Personal and add changes to this tab that will be seen only by you. Learn more ›
×
You can save this tab as Personal to edit and correct it or add notes. All changes will be seen only by you. Learn more »
launch autoscroll
font size
0
reset
how to read this tab
guitar tuner
edit
Autoscroll
slow
fast
+/-
esc
set tempo
stop
Author
Difficulty
eto na ung solo part ng takeshi..kumpleto ko na!icocopy lang pala tung mga dash na to...hello sa pcsi..
-teddy pogi-BSHrM I-A UPHSD 
pakinggan niyo na lang para kuha!

hammer- h



1st solo

E--7--5--4---------------7---5--4--------------------------------|
B------------5------5----------------5-------------------5---7---|
G-----------------------------------------4h6----4h6-------------|
D----------------------------------------------------------------|
A----------------------------------------------------------------|
E----------------------------------------------------------------|

2nd solo

E--7--5--4--------------7---5--4---------------------------------|
B------------5------5---------------5-------------------5--------|
G----------------------------------------4h6----4h6--------------|
D------------------------------------------------------------3---|
A----------------------------------------------------------------|
E----------------------------------------------------------------|

3rd solo

E--7--5--4--------------7---5--4---------------------------------|
B------------5------5---------------5-------------------5----5---|
G----------------------------------------4h6----4h6--------------|
D----------------------------------------------------------------|
A----------------------------------------------------------------|
E----------------------------------------------------------------|


bale ganto un!follow na lang ung pattern..........
1st solo
2nd solo
1st solo
3rd solo


babatiin ko ulit ung clasmeyt ko sa perps!BSHRM I-A!
tyaka si ana uli! 
un lang salamat!sensya na sa tab ko ahh....



            
            
Suggest correction
Creating personal tab
Creating personal tab
You can edit any tab online and save it as your Personal.

You can edit, replace or remove any tab part or add personal notes – all changes will be seen only by you.

Personal tabs can be accessed anytime from any device, even offline.
Learn more »
Give kudos to tab author, rate the tab!
1 2 3 4 5
comments
print report bad tab
1 comment total.
0 reply
mer 146 Apr 19, 2006 12:17 AM

wla nmn ata s kanta yan e

guest
You may want to rate the tab now too:
select rating
Wanna post a correction for this tab? Suggest correction