Oops, an error
Loading. Please wait.

Memphis Blues tab

133 views 1 this week
no commentswrite comment
1 2 3 4 5
2 more votes to show rating
add to favorites
×
Save as Personal and add changes to this tab that will be seen only by you. Learn more ›
×
You can save this tab as Personal to edit and correct it or add notes. All changes will be seen only by you. Learn more »
launch autoscroll
font size
0
reset
how to read this tab
guitar tuner
edit
Autoscroll
slow
fast
+/-
esc
set tempo
stop
[intro]
    E      E/D#   E/C#   E/B    A        E G#m F#m
e|------------------------------5---x-x--0--4--2---
B|--5------5------5------5------5---x-x--0--4--2---
G|----4------4------4------4----6---x-x--1--4--2---
D|------6------6------6------6--7---x-x--2--6--4---
A|--7------6------4-------------7---x-x--2--6--4---
E|-----------------------7------5---x-x--0--4--2---

[intro riff]
                    E         Esus4   E
e|------------------0---0-0---0-0-----0---0-0---
B|------------------0---0-0---0-0-----0---0-0---
G|-1h2-2-2-2-4h2----1---1-1---2-2-2^1-1---1-1---
D|------------------2---2-2---2-2-----2---2-2---
A|------------------2---2-2---2-2-----2---2-2---
E|------------------0---0-0---0-0-----0---0-2---

              E          Esus4   E
e|------------0----0-0---0-0-----0---0-0---
B|------------0----0-0---0-0-----0---0-0---
G|------------1----1-1---2-2-2^1-1---1-1---
D|------------2----2-2---2-2-----2---2-2---
A|-----2-4----2----2-2---2-2-----2---2-2---
E|-0-4-----0--0----0-0---0-0-----0---0-2---

E
E                   C#m  E                  C#m
El trapero va dibujando círculos por la manzana
E              C#m       F#m                B7
yo le preguntaría pero sé muy bien que no habla
A                       E         E               C#m
Las señoras me tratan amable me van a llenar de cintas
E                  C#m             F#m               B
y en lo profundo deep in my heart sé que no tengo salida


G#m                                      A
Oh mama esto puede ser el fin. Esto puede ser el fin
[intro]
    E      E/D#   E/C#   E/B     A                E G#m F#m
Atascado con el blues de Memphis sin poder salir

[intro riff]

Mona intentó mantenerme lejos de los ferroviarios
no sabes me dijo que se beben tu sangre como el vino a diario
Yo le dije que no lo sabía pero después tirando del hilo
me acordé de aquél que una vez
me dio un puñetazo en todo el cigarrillo

Oh mama ...

ya se murió la abuelita ya está enterrada entre las rocas
pero la gente habla todavía de la pena que le toca
Yo ya lo estaba viendo que iba de mal en peor
últimamente la vi encendiendo candela por la calle mayor

Oh mama ...

El senador ha llegado enseñando la pistola
mañana se casa mi hijo todo el mundo está invitado a la boda
con el bajío que yo tengo todo lo malo a mí me pasa
si voy seguro me cogen de marrón debajo de un camión y sin entrada

Oh mama ...

El hombre lluvia me dió dos remedios que aliviaran mi locura
el primero era un remedio sureño el segundo ginebra pura
como un loco hice una mezcla que me estranguló el cerebro
ahora veo a la gente más fea y he perdido el sentido del tiempo

Oh mama ...

            
            
Suggest correction
Creating personal tab
Creating personal tab
You can edit any tab online and save it as your Personal.

You can edit, replace or remove any tab part or add personal notes – all changes will be seen only by you.

Personal tabs can be accessed anytime from any device, even offline.
Learn more »
Give kudos to tab author, rate the tab!
1 2 3 4 5
comments
print report bad tab
guest
Wanna post a correction for this tab? Suggest correction