Oops, an error
Loading. Please wait.

Lips Like Morphine tab

version 1
version 1

Whole song

Interactive

8,224 views 6 this week
9 commentsread comments
1 2 3 4 5
x 7
add to favorites
×
Save as Personal and add changes to this tab that will be seen only by you. Learn more ›
×
You can save this tab as Personal to edit and correct it or add notes. All changes will be seen only by you. Learn more »
launch autoscroll
font size
0
reset
how to read this tab
guitar tuner
edit
Autoscroll
slow
fast
+/-
esc
set tempo
stop
Author
The tab needs some work, I'm missing some important bits in the introduction and
but most of its pretty good I think. I'd really love feedback so we can get it all tabbed
trust me mines far from it, but if you want the basic chords and stuff, you've come to 
right place. The rhythm is easy so I just wrote out which chords to play.

~Drop D~

*Intro
e--------------------------------------------|
b--------------------------------------------|
g--6--6-----------------------6--------------|  My intro is very lacking
d--6--6 x a bunch palm muted--6--------------|  so help me out okay?
a--4--4-----------------------4--------------|
D--------------------------------------------|

*Verse
e--------------------------------------------|
b--------------------------------------------|
g--6--------6--------6-----------------------|
d--6--7--2--6--7--2--6--9--4-----------------|
a--4--7--2--4--7--2--4--9--4-----------------|
D-----7--2-----7--2-----9--4-----------------|

*Chorus
e--------------------------------------------|
b--------------------------------------------|
g--6--9--------------------------------------|
d--6--9--7--9--11--13--14--16--7--9----------|
a--4--7--7--9--11--13--14--16--7--9----------|
D--------7--9--11--13--14--16--7--9----------|

*Intro
*Verse
*Chorus

There is no guitar in the bridge, then the Chorus plays again behind that mad solo that
couldn't figure out if my life depended on it. But that's pretty much it. Anyone who can
out the lead, you can be my hero.

            
            
Suggest correction
Creating personal tab
Creating personal tab
You can edit any tab online and save it as your Personal.

You can edit, replace or remove any tab part or add personal notes – all changes will be seen only by you.

Personal tabs can be accessed anytime from any device, even offline.
Learn more »
comments
print report bad tab
9 comments total. Showing first comments.
0 reply
jjjjustin 30 Jul 17, 2006 01:36 PM

ill take a stab at the solo


about 2:52
(-----------fast picking-------------)
e-------------------------------------------------------------------|
b-21-21-21-19-19-19-19-19-19-19-22-21-------------------21br-21-21--|
g-----------------------------------------21--------18--------------|
d--------------------------------------18----19h18------------------|
a-------------------------------------------------------------------|
D-------------------------------------------------------------------|

(---------------------------fast picking------------------------------)
e-----------------------------------------------------------------------|
b-21-21-21-19-19-19-17-17-17-12-12-12-12-12-12-14-14-14-16-16-16-17-17--|
g-----------------------------------------------------------------------|
d-----------------------------------------------------------------------|
a-----------------------------------------------------------------------|
D-----------------------------------------------------------------------|
(see ive waited..)


(to be here with you tonight)
e----------19-19-19-----------------------------------------------------|
b-17-17-17----------------------------------------21br21br21br----------|
g-----------------------------------21-------18-------------------------|
d-----------------------------18-19----19-18----------------------------|
a-----------------------------------------------------------------------|
D-----------------------------------------------------------------------|


yeah sorry if its hard to understand cause i suck at tabbing

0 reply
jjjjustin 30 Jul 17, 2006 01:37 PM

nice tab also

0 reply
jjjjustin 30 Jul 17, 2006 01:40 PM

oh yea and the intro i think has a couple G#5 slide to A5 things in it.
if that made sense

guest
You may want to rate the tab now too:
select rating
Wanna post a correction for this tab? Suggest correction