Oops, an error
Loading. Please wait.

Lips Like Morphine tab

version 3
version 3

Whole song

Interactive

14,321 views 6 this week
11 commentsread comments
1 2 3 4 5
x 20
add to favorites
×
Save as Personal and add changes to this tab that will be seen only by you. Learn more ›
×
You can save this tab as Personal to edit and correct it or add notes. All changes will be seen only by you. Learn more »
launch autoscroll
font size
0
reset
how to read this tab
guitar tuner
edit
Autoscroll
slow
fast
+/-
esc
set tempo
stop
Author
Difficulty
Song Name: Lips Like Morphine
Artist: Kill Hannah
Album: Until There's Nothing Left Of Us

Tuning: E,A,D,G,B,e

b - bend string
r - release string
/ - slide down fret
\ - slide up fret
~ - let it ring


INTRO:
e|-------------------------------------------------------------------------------------------------------------------------|
B|-------------------------------------------------------------------------------------------------------------------------|
G|--6\4/-6-6-6-6-6-6-6---6---0-6~\4/-6-6-6-6-6-6-6---6---0-6~\4/-6-6-6-6-6-6-6---6---0-6~\4/-6-6-6-6-6-6-6---6---0-6~~~----|
D|--6\4/-6-6-6-6-6-6-6/7-6/7-6-6~\4/-6-6-6-6-6-6-6/7-6/7-6-6~\4/-6-6-6-6-6-6-6/7-6/7-6-6~\4/-6-6-6-6-6-6-6/7-6/7-6-6~~~----|
A|--4\2/-4-4-4-4-4-4-4---4---0-4~\2/-4-4-4-4-4-4-4---4---0-4~\2/-4-4-4-4-4-4-4---4---0-4~\2/-4-4-4-4-4-4-4---4---0-4~~~----|
E|-------------------------------------------------------------------------------------------------------------------------|
      ^
     this part goes really really fast and in sliding motion


VERSE:
     I want a girl with lips like morphine...
e|-----------------------------------------------------------------------------------|
B|-----------------------------------------------------------------------------------|
G|------------------------------------------2~----------------------------6~---------|
D|------------------------------------------2~--------------2~------------6~---------|
A|------------------------------------------0~--------------2~------------4~---------|
E|----------------------------------------------------------0~-----------------------|

     Knock me out every time they touch me...
e|-----------------------------------------------------------------------------------|
B|-----------------------------------------------------------------------------------|
G|------------------------------------------2~----------------------------6----------|
D|------------------------------------------2~--------------2~------------6----------|
A|------------------------------------------0~--------------2~------------4----------|
E|----------------------------------------------------------0~-----------------------|

    I wanna feel that kiss just...crush me....and break me down...........
e|----------------------------------------------------------------------------------------------|
B|-----------------------------------------------------------------------------9999999999999999-|
G|--6-6-6-6-6-6-6-6-6-6-6-6-6-6-6-6-----4~------------------------------------------------------|
D|--6-6-6-6-6-6-6-6-6-6-6-6-6-6-6-6-----4~--------------------4~--------------------------------|
A|--4-4-4-4-4-4-4-4-4-4-4-4-4-4-4-4-----2~--------------------4~--------------------------------|
E|------------------------------------------------------------2~--------------------------------|


CHORUS:
    Knock me out (Knock me out).......Knock me out (Knock me out)......
e|----------------------------------------------------------------------------------------------|
B|----------------------------------------------------------------------------------------------|
G|--6-6-6-6-6-6-6-6-6-6-6-6-6-6-6-6-6-9-9-9-9-9-9-9-9-9-9-9-9-9-9-9-9---------------------------|
D|--6-6-6-6-6-6-6-6-6-6-6-6-6-6-6-6-6-9-9-9-9-9-9-9-9-9-9-9-9-9-9-9-9---------------------------|
A|--4-4-4-4-4-4-4-4-4-4-4-4-4-4-4-4-4-7-7-7-7-7-7-7-7-7-7-7-7-7-7-7-7---------------------------|
E|----------------------------------------------------------------------------------------------|

    Coz I've waited for all my life....
e|-----------------------------------------------------------------------------------|
B|-----------------------------------------------------------------------------------|
G|----2-2-2-2-2-2-2-2-4-4-4-4-4-4-4-4-6-6-6-6-8-8-8-8-9-9-9-9-11-11-11-11------------|
D|----2-2-2-2-2-2-2-2-4-4-4-4-4-4-4-4-6-6-6-6-8-8-8-8-9-9-9-9-11-11-11-11------------|
A|----0-0-0-0-0-0-0-0-2-2-2-2-2-2-2-2-4-4-4-4-6-6-6-6-7-7-7-7--9--9--9--9------------|
E|-----------------------------------------------------------------------------------|

    To be here with you tonight.....
e|--------------------------------------------------------------------------------------------------------|
B|--------------------------------------------------------------------------------------------------------|
G|----2-2-2-2-2-2-2-2-4-4-4-4-4-4-4-4-6\4/-6-6-6-6-6-6-6---6---0-6~\4/-6-6-6-6-6-6-6---6---0-6~-----------|
D|----2-2-2-2-2-2-2-2-4-4-4-4-4-4-4-4-6\4/-6-6-6-6-6-6-6/7-6/7-6-6~\4/-6-6-6-6-6-6-6/7-6/7-6-6~-----------|
A|----0-0-0-0-0-0-0-0-2-2-2-2-2-2-2-2-4\2/-4-4-4-4-4-4-4---4---0-4~\2/-4-4-4-4-4-4-4---4---0-4~-----------|
E|--------------------------------------------------------------------------------------------------------|


VERSE:
     I want a girl with lips like morphine...
e|-----------------------------------------------------------------------------|
B|-----------------------------------------------------------------------------|
G|------------------------------------------2~-----------4-4-4------6~---------|
D|------------------------------------------2~-----------4-4-4------6~---------|
A|------------------------------------------0~-----------2-2-2------4~---------|
E|-----------------------------------------------------------------------------|

     Blow a kiss that leaves me gasping...
e|-----------------------------------------------------------------------------------|
B|-----------------------------------------------------------------------------------|
G|------------------------------------------2~----------------------------6----------|
D|------------------------------------------2~--------------2~------------6----------|
A|------------------------------------------0~--------------2~------------4----------|
E|----------------------------------------------------------0------------------------|

    I wanna feel that lighting...strike me....and burn me down...........
e|----------------------------------------------------------------------------------------------|
B|------------------------------------------------------------------------------99999999999999--|
G|--6-6-6-6-6-6-6-6-6-6-6-6-6-6-6-6-----4~------------------------------------------------------|
D|--6-6-6-6-6-6-6-6-6-6-6-6-6-6-6-6-----4~--------------------4~--------------------------------|
A|--4-4-4-4-4-4-4-4-4-4-4-4-4-4-4-4-----2~--------------------4~--------------------------------|
E|------------------------------------------------------------2---------------------------------|


CHORUS:
    Knock me out (Knock me out).......Knock me out (Knock me out)......
e|----------------------------------------------------------------------------------------------|
B|----------------------------------------------------------------------------------------------|
G|--6-6-6-6-6-6-6-6-6-6-6-6-6-6-6-6-6-9-9-9-9-9-9-9-9-9-9-9-9-9-9-9-9---------------------------|
D|--6-6-6-6-6-6-6-6-6-6-6-6-6-6-6-6-6-9-9-9-9-9-9-9-9-9-9-9-9-9-9-9-9---------------------------|
A|--4-4-4-4-4-4-4-4-4-4-4-4-4-4-4-4-4-7-7-7-7-7-7-7-7-7-7-7-7-7-7-7-7---------------------------|
E|----------------------------------------------------------------------------------------------|

    Coz I've waited for all my life....
e|-----------------------------------------------------------------------------------|
B|-----------------------------------------------------------------------------------|
G|----2-2-2-2-2-2-2-2-4-4-4-4-4-4-4-4-6-6-6-6-8-8-8-8-9-9-9-9-11-11-11-11------------|
D|----2-2-2-2-2-2-2-2-4-4-4-4-4-4-4-4-6-6-6-6-8-8-8-8-9-9-9-9-11-11-11-11------------|
A|----0-0-0-0-0-0-0-0-2-2-2-2-2-2-2-2-4-4-4-4-6-6-6-6-7-7-7-7--9--9--9--9------------|
E|-----------------------------------------------------------------------------------|

    To be here with you tonight.....
e|-----------------------------------------------------------------------------------|
B|-----------------------------------------------------------------------------------|
G|----2-2-2-2-2-2-2-2-4-4-4-4-4-4-4-4-6-6-6-6-8-8-8-8-9-9-9-9-15-15-15-15------------|
D|----2-2-2-2-2-2-2-2-4-4-4-4-4-4-4-4-6-6-6-6-8-8-8-8-9-9-9-9-15-15-15-15------------|
A|----0-0-0-0-0-0-0-0-2-2-2-2-2-2-2-2-4-4-4-4-6-6-6-6-7-7-7-7-13-13-13-13------------|
E|-----------------------------------------------------------------------------------|

    Just put me on my path.......knock me out again
e|-----------------------------------------------------------------------------------|
B|-----------------------------------------------------------------------------------|
G|----2----2-2----2-4-4--4-4----4-4--4-4--4-4--4-4--4-4-6~~~-------------------------|
D|----2----2-2----2-4-4--4-4----4-4--4-4--4-4--4-4--4-4-6~~~-------------------------|
A|----0----0-0----0-2-2--2-2----2-2--2-2--2-2--2-2--2-2-4~~~-------------------------|
E|-----------------------------------------------------------------------------------|

    I wanna girl with lips like morphine (lips like morphine)
    Knock me out every time they touch me (knock me out when they touch me)
    
    I wanna girl with lips like...morphine(lips like morphine)...
    to knock me out....
e|-----------------------------------------------------------------------------------------------------16-16-16-16-16-16-16-16-16-16----|
B|--------------------------------------------------------------------------------------------------------------------------------------|
G|------------------------------------------------------------2----2-2----2-4-4--4-4----4-4--4-4----------------------------------------|
D|------------------------------------------------------------2----2-2----2-4-4--4-4----4-4--4-4----------------------------------------|
A|------------------------------------------------------------0----0-0----0-2-2--2-2----2-2--2-2----------------------------------------|
E|--------------------------------------------------------------------------------------------------------------------------------------|

SOLO:
e|-16-16-16-14-14-14-14-14-14-14-14-14-14-14-14-14-14-17-17-17-17-17-17-----12-----12-16/18\16-16-16-16-16-16-16-14/16\12-12-12-12-12-12-12-12-12-12-12-12-7-7-7-7-7-7-7-7---|
B|----------------------------------------------------------------------9/10---9/10------------------------------------------------------------------------------------------|
G|---------------------------------------------------------------------------------------------------------------------------------------------------------------------------|
D|---------------------------------------------------------------------------------------------------------------------------------------------------------------------------|
A|---------------------------------------------------------------------------------------------------------------------------------------------------------------------------|
E|---------------------------------------------------------------------------------------------------------------------------------------------------------------------------|

    See I've waited for all my life
e|-7-7-7-7-7-7-7-9-9-9-9-9-9-9-9-9-11-11-11-11-11-11-11-11-11-11-11-12~--12~--12~-----------------|
B|------------------------------------------------------------------------------------------------|
G|------------------------------------------------------------------------------------------------|
D|------------------------------------------------------------------------------------------------|
A|------------------------------------------------------------------------------------------------|
E|------------------------------------------------------------------------------------------------|
        To be here with you tonight...
        Just put on my path...knock me out again
e|--19~--19br-19br19br~-19br-19br19br~-------12-----11--16\14/16-16br16br16brb16r-16-16--12br12br12-16br16br-16-1614-14-16br-16-16-12br~-----|
B|---------------------------------------9/10---9/10-----------------------------------------------------------------------------------------|
G|-------------------------------------------------------------------------------------------------------------------------------------------|
D|-------------------------------------------------------------------------------------------------------------------------------------------|
A|-------------------------------------------------------------------------------------------------------------------------------------------|
E|-------------------------------------------------------------------------------------------------------------------------------------------|


            
            
Suggest correction
Creating personal tab
Creating personal tab
You can edit any tab online and save it as your Personal.

You can edit, replace or remove any tab part or add personal notes – all changes will be seen only by you.

Personal tabs can be accessed anytime from any device, even offline.
Learn more »
comments
print report bad tab
11 comments total. Showing first comments.
0 reply
YourMessiah666 577 Aug 04, 2007 02:45 PM

Spot on man, absolutely spot on. 5 stars.

0 reply
fredzeskater 239 Sep 25, 2007 12:43 PM

hows this intermediate?
anyone could play this!

0 reply
killhannahfan01 10 Sep 30, 2007 07:42 AM

excellent tab dude. best tab on kill hannah's part. 5 stars

guest
You may want to rate the tab now too:
select rating
Wanna post a correction for this tab? Suggest correction