Oops, an error
Loading. Please wait.

Never Come Around Tab

version 1
version 1

Whole song

823 views 1 this week
no commentswrite comment
1 2 3 4 5
please rate
add to favorites
launch autoscroll
font size
0
reset
how to read this tab
guitar tuner
Autoscroll
slow
fast
+/-
esc
set tempo
stop
Help us to improve Ultimate-Guitar.com Take our survey!
×
Author
http://www.killthealarm.com

Hey I love this band but couldn't find any tabs anywhere.
I tried tabbing this by ear but it's my first tab ever and
I'm not so good at getting things by ear but Have a go :)

If anyone can finish it off or improve then please do :D

e|------------------------------|------------------------------|
B|------------------------------|------------------------------|
G|----6---6---------6---5-------|----6---6---------6---5-------|
D|--7---7-----7--7---7------7---|--7---7-----7--7---7------7---|
A|------------------------------|-5---5--------5---5-----------|
E|-5---5--------5---5-----------|------------------------------|

then ring out:

e|--------|
B|----5---|
G|----6---|
D|----7---|
A|----7---|
E|----5---|

High bit is something like (listen for timing):

e|-------------14----|
B|----14-------14----|
G|----14-------14----|
D|----14-------------|
A|-------------------|
E|-------------------|

Palm muted bit is:

e|---------------------------------------------------------|
B|---------------------------------------------------------|
G|------------------------------------9999-7777-6666-4444--|
D|---4----------7----------4----------xxxx-xxxx-xxxx-xxxx--|
A|---4--(x16)---7--(x16)---4--(x16)---7777-5555-4444-2222--|
E|---2----------5----------2-------------------------------|

Chorus

e|-----------------------------|
B|----5---7---5----------------|
G|----6---7---6------------7~--|
D|----7---7---7---7/9-999-7~---|
A|----7---5---7---7/9-999-5~---|
E|----5-------5---5/7-777------|
Suggest correction
What's this?
You can suggest a correction to this tab. Community and Mods will review your correction and vote to approve or reject it.
comments
We did not receive enough feedback on this tab! Please rate:
print report bad tab
1 2 3 4 5
guest
You may want to rate the tab now too:
select rating
Please do not post tabs as comments. Select "correction" instead!