Oops, an error
Loading. Please wait.

Never Come Around Tab

version 2
version 2

Whole song

114 views 1 this week
1 commentread comment
1 2 3 4 5
please rate
add to favorites
launch autoscroll
font size
0
reset
how to read this tab
guitar tuner
Autoscroll
slow
fast
+/-
esc
set tempo
stop
Help us to improve Ultimate-Guitar.com Take our survey!
×
Author
Difficulty
intermediate
NEVER COME AROUND
Words and Music by: Kill the Alarm
Tabbed by: Roland Ignacio

Special Thanks to:
midgar777, for the original tab
the JamLegend team, for introducing me to this amazing song, and
Kill the Alarm, for the wonderful music.

Ratings, comments and corrections are highly appreciated. This is my first tab, go easy on me. :)

Tuning: E Standard

Intro

Riff A
e||------------------------------------------------------------------------||
B||*----------------------------------------------------------------------*||
G||--------6-----6---------6-----6---------6-----6---------6-----6---------||
D||------7-----7-----7---7-----7-----7---7-----7-----7---7-----7-----7-----||
A||*-----------------------------------5-----5-----5---5-----5-----5------*||
E||----5-----5-----5---5-----5-----5---------------------------------------||

Guitar I: w/ Riff A
Guitar II
e||------------------------------------------------------------------------------------------------||
B||*---------14-------14------------14-------15------------14-------14------------14-------15-----*||
G||-------14-------14------14----14-------14------14----14-------14------14----14-------14---------||
D||--------------------------------------------------12-------12------------12-------12-------14---||
A||*-12---------12------------12-------12---------------------------------------------------------*||
E||------------------------------------------------------------------------------------------------||


Verse

Guitar I tacet
Guitar II
Spend all your days with your head in the clouds...
e|---------------------------------------------------------------------------|
B|---------------------------------------------------------------------------|
G|----14---------------------------------------------------------------------|
D|----14---------------------------------------------------------------------|
A|----12---------------------------------------------------------------------|
E|---------------------------------------------------------------------------|

(with Phaser Effect)
      Nothing in your way, No one's on your side...
e||-------------------------------------------14---14-14---14---14---14---14---14-14--||
B||*-14---14-14---14---14---14---14---14-14---15---15-15---15---15---15---15---15-15-*||
G||--14---14-14---14---14---14---14---14-14---14---14-14---14---14---14---14---14-14--||
D||--14---14-14---14---14---14---14---14-14-------------------------------------------||
A||*---------------------------------------------------------------------------------*||
E||-----------------------------------------------------------------------------------||


Prechorus

Guitar I and II
     Thoughts of crashing down...
e|---------------------------------------------------------------------------|
B|---------------------------------------------------------------------------|
G|--------4-----4---------4-----4---------7-----7---------7-----7------------|
D|--------4-----4---------4-----4---------7-----7---------7-----7------------|
A|----2-2-2-2-2-2---2-2-2-2-2-2-2---2-5-5-5-5-5-5---5-5-5-5-5-5-5------------|
E|---------------------------------------------------------------------------|
    PM---| |---|   |-----| |---|   |-----| |---|   |-----| |---|

                  Getting lost and swept away...
Guitar I 
e|---------------------------------------------------------------------------|
B|---------------------------------------------------------------------------|
G|--------4-----4---------4-----4---9-9-9-9-7-7-7-7-6-6-6-6-4-4-4-4----------|
D|--------4-----4---------4-----4---x-x-x-x-x-x-x-x-x-x-x-x-x-x-x-x----------|
A|----2-2-2-2-2-2---2-2-2-2-2-2-2---7-7-7-7-5-5-5-5-4-4-4-4-2-2-2-2----------|
E|---------------------------------------------------------------------------|
    PM---| |---|   |-----| |---|   

Guitar II
e|---------------------------------------------------------------------------|
B|---------------------------------------------------------------------------|
G|--------4-----4---------4-----4---7-7-7-7-9-9-9-9-11-11-11-11-12-12-12-12--|
D|--------4-----4---------4-----4---x-x-x-x-x-x-x-x--x--x--x--x--x--x--x--x--|
A|----2-2-2-2-2-2---2-2-2-2-2-2-2---7-7-7-7-9-9-9-9-11-11-11-11-12-12-12-12--|
E|---------------------------------------------------------------------------|
    PM---| |---|   |-----| |---|   


Chorus I

Guitar I and II
    Why should I try to be something I'm not...
e|---------------------------------------------------------------------------|
B|---------------------------------------------------------------------------|
G|----------------------------------7-7-7-7-7-7-7-7-7-7-7-7-7-7-7-7-7--------|
D|--7-7-7-7-7-7-7-7-7-7-7-7-7-7-7-7-7-7-7-7-7-7-7-7-7-7-7-7-7-7-7-7-7--------|
A|--7-7-7-7-7-7-7-7-7-7-7-7-7-7-7-7-5-5-5-5-5-5-5-5-5-5-5-5-5-5-5-5-5--------|
E|--5-5-5-5-5-5-5-5-5-5-5-5-5-5-5-5------------------------------------------|

e|---------------------------------------------------------------------------|
B|---------------------------------------------------------------------------|
G|---------------------------------------------------------------------------|
D|--7-7-7-7-7-7-7-7-7-7-7-7-7-7-7-7-------------5----------------------------|
A|--7-7-7-7-7-7-7-7-7-7-7-7-7-7-7-7-2-4-2-0-----5----------------------------|
E|--5-5-5-5-5-5-5-5-5-5-5-5-5-5-5-5---------2---3----------------------------|


Repeat Intro, Verse and Prechorus


Chorus II

Guitar I and II
    Why should I try to be something I'm not...
e|---------------------------------------------------------------------------|
B|---------------------------------------------------------------------------|
G|----------------------------------7-7-7-7-7-7-7-7-7-7-7-7-7-7-7-7-7--------|
D|--7-7-7-7-7-7-7-7-7-7-7-7-7-7-7-7-7-7-7-7-7-7-7-7-7-7-7-7-7-7-7-7-7--------|
A|--7-7-7-7-7-7-7-7-7-7-7-7-7-7-7-7-5-5-5-5-5-5-5-5-5-5-5-5-5-5-5-5-5--------|
E|--5-5-5-5-5-5-5-5-5-5-5-5-5-5-5-5------------------------------------------|

e|---------------------------------------------------------------------------|
B|---------------------------------------------------------------------------|
G|----------------------------------7-7-7-7-7-7-7-7-7-7-7-7-7-7-7-7-7--------|
D|--7-7-7-7-7-7-7-7-7-7-7-7-7-7-7-7-7-7-7-7-7-7-7-7-7-7-7-7-7-7-7-7-7--------|
A|--7-7-7-7-7-7-7-7-7-7-7-7-7-7-7-7-5-5-5-5-5-5-5-5-5-5-5-5-5-5-5-5-5--------|
E|--5-5-5-5-5-5-5-5-5-5-5-5-5-5-5-5------------------------------------------|

    Here is goodbye if you try to change my mind...
e|---------------------------------------------------------------------------|
B|---------------------------------------------------------------------------|
G|----------------------------------7-7-7-7-7-7-7-7-7-7-7-7-7-7-7-7-7--------|
D|--4-4-4-4-4-4-4-4-4-4-4-4-4-4-4-4-7-7-7-7-7-7-7-7-7-7-7-7-7-7-7-7-7--------|
A|--4-4-4-4-4-4-4-4-4-4-4-4-4-4-4-4-5-5-5-5-5-5-5-5-5-5-5-5-5-5-5-5-5--------|
E|--2-2-2-2-2-2-2-2-2-2-2-2-2-2-2-2------------------------------------------|

e|--------------------------------------------------------------------------------------|
B|--------------------------------------------------------------------------------------|
G|----------------------------------------------------------6---------------------------|
D|--7-7-7-7-7-7-7-7-7-7-7-7-7-7-7-7-------------------------6----------------------5----|
A|--7-7-7-7-7-7-7-7-7-7-7-7-7-7-7-7-2-4-2-0-----2-4-2-0-----4---2-4-2-0----2-4-2-0-5----|
E|--5-5-5-5-5-5-5-5-5-5-5-5-5-5-5-5---------2-----------2---------------2----------3----|


Bridge

Guitar II
       It's the pretty pain I love, it's the reason that I bleed,
e|--4-------------------------2------------------------------5---------------|
B|--5-------------------------2----------------------2-------7---7-----------|
G|--6-------------------------3------------------------------7-----7---------|
D|--6-------------------------4------------------------------7---------------|
A|--4-------------------------4------------------------------5---------------|
E|----------------------------2----------------------------------------------|

...I am okay, alright, okay, alright...
Guitar II
e|-----7---------------------------------------------------------------------|
B|-----9---------------------------------------------------------------------|
G|-----9---------------------------------------------------------------------|
D|-----9---------------------------------------------------------------------|
A|-----7---------------------------------------------------------------------|
E|---------------------------------------------------------------------------|

Guitar I
e|---------------------------------------------------------------------------|
B|---------------------------------------------------------------------------|
G|-------------9---------------9---------------9---------------9-------------|
D|-------------9---------------9---------------9---------------9-------------|
A|-----7-7-7-7-7-------7-7-7-7-7-------7-7-7-7-7-------7-7-7-7-7-------------|
E|---------------------------------------------------------------------------|
     PM-------|       |-------|       |-------|       |-------|


Chorus III

Guitar I
      Why should I try to be something I'm not...
e|---------------------------------------------------------------------------|
B|---------------------------------------------------------------------------|
G|---------------------------------------------------------------------------|
D|---------------------------------------------------------------------------|
A|----0-0-0-0-0-0-0-0-0-0-0-0-0-0-0-0-0-0-0-0-0-0-0-0-0-0-0-0-0-0-0-0--------|
E|---------------------------------------------------------------------------|
    PM---------------------------------------------------------------|

e|---------------------------------------------------------------------------|
B|---------------------------------------------------------------------------|
G|---------------------------------------------------------------------------|
D|---------------------------------------------------------------------------|
A|----5-5-5-5-5-5-5-5-5-5-5-5-5-5-5-5-2--------------------------------------|
E|---------------------------------------------------------------------------|
    PM---------------------------------|

   Here is goodbye if you try to change my mind...
e|---------------------------------------------------------------------------|
B|---------------------------------------------------------------------------|
G|----------------------------------7-7-7-7-7-7-7-7-7-7-7-7-7-7-7-7-7--------|
D|--7-7-7-7-7-7-7-7-7-7-7-7-7-7-7-7-7-7-7-7-7-7-7-7-7-7-7-7-7-7-7-7-7--------|
A|--7-7-7-7-7-7-7-7-7-7-7-7-7-7-7-7-5-5-5-5-5-5-5-5-5-5-5-5-5-5-5-5-5--------|
E|--5-5-5-5-5-5-5-5-5-5-5-5-5-5-5-5------------------------------------------|

e|---------------------------------------------------------------------------|
B|---------------------------------------------------------------------------|
G|---------------------------------------------------------------------------|
D|--4-4-4-4-4-4-4-4-4-4-4-4-4-4-4-4-5-5-5-5-5-5-5-5-5-5-5-5-5-5-5-5-5--------|
A|--4-4-4-4-4-4-4-4-4-4-4-4-4-4-4-4-5-5-5-5-5-5-5-5-5-5-5-5-5-5-5-5-5--------|
E|--2-2-2-2-2-2-2-2-2-2-2-2-2-2-2-2-3-3-3-3-3-3-3-3-3-3-3-3-3-3-3-3-3--------|


Outro

Guitar I
e|---------------------------------------------------------------------------|
B|---------------------------------------------------------------------------|
G|---------6-----6---------6-----6---------6-----6---------6-----6-----------|
D|-------7-----7-----7---7-----7-----7---7-----7-----7---7-----7-----7-------|
A|-------------------------------------5-----5-----5---5-----5-----5---------|
E|-----5-----5-----5---5-----5-----5-----------------------------------------|

Guitar II
e|------------------------------------------------------------------------------------------------|
B|---------14-------14------------14-------15-------------14-------14------------14-------15------|
G|------14-------14------14----14-------14------14-----14-------14------14----14-------14---------|
D|--------------------------------------------------12-------12------------12-------12---------14-|
A|-12---------12------------12-------12-----------------------------------------------------------|
E|------------------------------------------------------------------------------------------------|

Guitar I
e|-----------------------------------------------------------------------------------------|
B|-----------------------------------------------------------------------------------------|
G|---------6-----6---------6-----6-----------------------------6---------------------------|
D|-------7-----7-----7---7-----7-----7-------------------------6----------------------5----|
A|-------------------------------------2-4-2-0-----2-4-2-0-----4---2-4-2-0----2-4-2-0-5----|
E|-----5-----5-----5---5-----5-----5-----------2-----------2---------------2----------3----|

Guitar II
e|----------------------------------------------------------------------------------------------------|
B|---------14-------14------------14-------15---------------------------------------------------------|
G|------14-------14------14----14-------14--------------------------------6---------------------------|
D|------------------------------------------------------------------------6----------------------5----|
A|-12---------12------------12-------12-----------2-4-2-0-----2-4-2-0-----4---2-4-2-0----2-4-2-0-5----|
E|--------------------------------------------------------2-----------2---------------2----------3----|
Suggest correction
Give kudos to tab author, rate the tab!
1 2 3 4 5
comments
print report bad tab
1 comment total.
0 reply
patmull1 37 wrote on August 9 2012, 03:13 pm

Awesome work, absolutely accurate! You must write tab for more Kill The Alarm songs, please!!!

guest
You may want to rate the tab now too:
select rating
Please do not post tabs as comments. Select "correction" instead!