Oops, an error
Loading. Please wait.

Sit Up Tab

214 views 1 this week
no commentswrite comment
1 2 3 4 5
please rate
add to favorites
launch autoscroll
font size
0
reset
how to read this tab
guitar tuner
Tab Pro tools
  • play this tab
  • loop segment
  • change instrument
  • show fretboard
  • metronome
×
Best way to learn
"Sit Up"
Autoscroll
slow
fast
+/-
esc
set tempo
stop
Contributor
Difficulty
Tuning
intermediate
D A D G B E
-------------------------------------------------------------------------------
                             Sit Up - Kill The Alarm
-------------------------------------------------------------------------------
Tabbed by: Evatime
Email: evatime@live.co.uk

Tuning: Drop D


Intro/Verse:

Rhythm guitar (Riff plays throughout verse)
e-------------------------------------|
b-------------------------------------|
g-------------------------------------|
d-2-4-4-2-4-4-2-4-4-2-4-4-4-2-5-5-5-2-| x2
a-5-5-5-5-5-5-5-5-5-5-5-5-5-5-5-5-5-5-|
d-------------------------------------|


Lead Guitar
e------------------------|    e--------|
b---3---5----3---5--7/8--|    b--7--7~-|
g------------------------|    g--------|
d-0---0---0----0---------| x4 d--------|
a------------------------|    a--------|
d------------------------|    d--------|

Then:
e--5-5-5-5--5-5~--5----5--5-5~---------------------|
b--7-7-7-7--5-5~--7----8--5-5~---------------------|
g--7-7-7-7--7-7~--7----7--7-7~---------------------|
d--7-7-7-7--7-7~--7 x3-7--7-7~---------------------|
a--5-5-5-5--5-5~--5----5--5-5~---------------------|
d--x-x-x-x--x-x---x----x--x-x----------------------|

e-------------------------------------|
b--5/7-7-7-5/7-7-7-5/7-7-7-8-8-8------|
g-------------------------------------|
d-------------------------------------|
a-------------------------------------|
d-------------------------------------|

Then:
e--5-5-5-5--5-5~--5----5--5-5~---------------------|
b--7-7-7-7--5-5~--7----8--5-5~---------------------|
g--7-7-7-7--7-7~--7----7--7-7~---------------------|
d--7-7-7-7--7-7~--7 x3-7--7-7~---------------------|
a--5-5-5-5--5-5~--5----5--5-5~---------------------|
d--x-x-x-x--x-x---x----x--x-x----------------------|

Chorus:

Rhythm guitar
e--5---5---2---7---5---5---2---7---7----------------|
b--5---8---3---10--5---8---3---10--10---------------|
g--7---7---4---9---7---7---4---9---9----------------|
d--7---5---4---7---7---5---4---7---7----------------|
a--5---5---2---7---5---5---2---7---7----------------|
d------5-------7-------5-------7---7----------------|

   D   G   Bm  A   D   G   Bm  A   A


Lead Guitar
e-------17~------17~------------------------|
b--15~------15~-----------------------------|
g-----14~------14~--------------------------|
d-------------------------------------------|
a-------------------------------------------|
d-------------------------------------------|
(Let the notes ring out)

Bridge:

Rhythm guitar
e--2~-  -5----2----       e--5----5----2-----5~-|
b--3~-  -8----3----       b--5----8----4-----8~-|
g--4~-  -7 x8-4 x8- (x2)  g--7 x8-7 x8-3 x4--7~-|
d--4~-  -5----4----       d--7----5----2-----5~-|
a--2~-  -5----2----       a--5----5----2-----5~-|
d--x--  -5----x----       d--x----5----2-----5~-|

Lead Guitar
e--------17-17-17-15-14-|
b--12-15----------------|
g-----------------------|
d-----------------------|
a-----------------------|
d-----------------------|

Break:

Rhythm Guitar
e--0~~-----|
b--3~~-----|
g--2~~-----|  (Keep chiming from bridge)
d--0~~-----|
a--0~~-----|
d--0-------|

No Lead Guitar in Break

Outro:

Rhythm Guitar
e-------------------------------------|
b-------------------------------------|
g-------------------------------------|
d-2-4-4-2-4-4-2-4-4-2-4-4-4-2-5-5-5-2-| x2
a-5-5-5-5-5-5-5-5-5-5-5-5-5-5-5-5-5-5-|
d-------------------------------------|

Lead Guitar
e-0~-----|
b-3~-----|
g-2~-----|  (last note - Ring out)
d-0~-----|
a-0~-----|
d-0------|


Order:
Intro/Verse
Verse
Chorus
Verse
Chorus
Bridge
Break
Chorus
Outro
comments
We did not receive enough feedback on this tab! Please rate:
print report bad tab
1 2 3 4 5
I want to post or [tab]
guest
You may want to rate the tab now too:
select rating
Please do not post tabs as comments. Select "correction" instead!