Oops, an error
Loading. Please wait.

Chapter Ii Bass Tab

4 views 1 this week
no commentswrite comment
1 2 3 4 5
3 more votes to show rating
add to favorites
launch autoscroll
font size
0
reset
guitar tuner
Autoscroll
slow
fast
+/-
esc
set tempo
stop
Help us to improve Ultimate-Guitar.com Take our survey!
×
Author
Difficulty
Tuning
intermediate
C G C F A D
[Intro]

F|----------------------------------------------------|------------------------------------------|
C|----------------------------------------------------|------------------------------------------|
G|-----------------------------------------------3---3|------------------------------------------|
C|-6--6----6--6----6--6--6---6--6---6---6---6--6---4--|-0--0--13--0--0--13--0--0--13--0--13--12--| x2 (x3)

F|-------------------------------------------------|
C|-------------------------------------------------|
G|-------------------------------------------------|
C|-6--6----6--6----6--6--6---6--6---6---6---6--6---|


[Verse]

F|--------------------------------------|
C|--------------------------------------|
G|--------------------------------------|
C|-1---1---1--1----1--1----4--4----1----| x3

F|----------------------|
C|----------------------|
G|----------------------|
C|-1----1---1--0--------|

[Pre-Chorus]

F|----------------------------------------------------------------------------------------------|
C|----------------------------------------------------------------------------------------------|
G|-----------------------------------------------3---3------------------------------------------|
C|-6--6----6--6----6--6--6---6--6---6---6---6--6---4---0--0--13--0--0--13--0--0--13--0--13--12--| x3

F|-------------------------------------------------|
C|-------------------------------------------------|
G|-------------------------------------------------|
C|-6--6----6--6----6--6--6---6--6---6---6---6--6---|


[Chorus]

F|---------------------------------------------------------------------------------|
C|---------------------------------------------------------------------------------|
G|---------------------------------------------------------------------------------|
C|-0--0-0--0-0--0-0-0--3--3-3--3-3--3-3-3--9--9-9--9-9--9-9-9--6--6-6--6-6--6-6-6--| x2


[Bridge]

F|------------------------------------------------|
C|------------------------------------------------|
G|------------------------------------------------|
C|-0--0-0--13--0--0-0--13--0--0-0--13---6-6--6-6--|

F|------------------------------------------------|
C|------------------------------------------------|
G|------------------------------------------5-----|
C|-0--0-0--13--0--0-0--13--0--0-0--13---5-6---8---|

F|------------------------------------------------|
C|------------------------------------------------|
G|------------------------------------------------|
C|-0--0-0--13--0--0-0--13--0--0-0--13---6-6--6-6--|


F|--------------------------------------------------|
C|--------------------------------------------------|
G|------------------------------------------3-----1-|
C|-0--0-0--13--0--0-0--13--0--0-0--13---5-6---4-3---|

[Verse]

F|--------------------------------------|
C|--------------------------------------|
G|--------------------------------------|
C|-1---1---1--1----1--1----6--6----1----| x3

F|----------------------|
C|----------------------|
G|----------------------|
C|-1----1---1--0--------|

[Breakdown]

F|----------------------|
C|----------------------|
G|----------------------|
C|-0--------------------|

F|--------------|
C|--------------|
G|--------------|
C|-6-5-0-8--8---|
Suggest correction
Give kudos to tab author, rate the tab!
1 2 3 4 5
comments
print report bad tab
guest
You may want to rate the tab now too:
select rating
Wanna post a correction for this tab? Suggest correction