Oops, an error
Loading. Please wait.

Get Out Get Out Bass Tab

7 views 1 this week
no commentswrite comment
1 2 3 4 5
3 more votes to show rating
add to favorites
launch autoscroll
font size
0
reset
guitar tuner
Autoscroll
slow
fast
+/-
esc
set tempo
stop
Help us to improve Ultimate-Guitar.com Take our survey!
×
Author
Difficulty
Tuning
intermediate
C G C F A D
Kill The Silence - Get Out! Get Out! [Bass Tab]
[Guitar plays single note for 2 bars]

[Intro]
F|--------------|
C|--------------|
G|--------------|
C|----12\0-0-1--|

[Verse]
F|---------------------------------------------------------------------------------|
C|---------------------------------------------------------------------------------|
G|--5---5--5--5--5--5--3---3--3--3--3--3-------------------------------------------|
C|----------------------------------------5---5--5--5--5--5--8--8--8--8--8--8------|
    
F|------------------------------------------------------------------------------|
C|------------------------------------------------------------------------------|
G|--5---5--0--7--8--7--3---3--0--8--7--5----------------------------------------|
C|----------------------------------------5---5--5--5--5--5--8--8--8--8--8--8---|
    
F|------------------------------------------------------------------------------|
C|------------------------------------------------------------------------------|
G|--5---5--5--5--5--5--3---3--3--3--3--3----------------------------------------|
C|----------------------------------------5---5--5--5--5--5--8--8--8--8--8--8---|x3
    Drinking doesnt...

F|------------------------------------------------------------------------------------------|
C|------------------------------------------------------------------------------------------|
G|--5---5--5--5--5--5--3---3--3--3--3--3----------------------------------------------------|
C|----------------------------------------5---5--5--5--5--5--8-8-8-8--8-8-8-8--8-8-8-8--8---|
    And for so long...

[Pre-Chorus]
F|---------------------------------------------------------------------------|
C|---------------------------------------------------------------------------|
G|---------------------------------------------------------------------------|
C|-5-5-5--5-5------8-8-8--8-8------12-12-12--12-12-----10-10-10--10-10-------| x2
   And those pretty eyes...

[Chorus]
F|-----------------------------------------------------------|
C|-----------------------------------------------------------|
G|---------------------------------------------------13--15--|
C|--12-0-0-12-0-0-12-0-0-12-0-0-12-0-0-12-0-0-12-0-0---------|

F|-------------------------------------------|
C|-------------------------------------------|
G|-------------------------------------------|
C|--12-0-0-12-0-0-12-0-0-12-0-0-1----4--1-3--|

F|-----------------------------------------------------------|
C|-----------------------------------------------------------|
G|---------------------------------------------------13--15--|
C|--12-0-0-12-0-0-12-0-0-12-0-0-12-0-0-12-0-0-12-0-0---------|

F|-------------------------------------------|
C|-------------------------------------------|
G|-------------------------------------------|
C|--12-0-0-12-0-0-12-0-0-12-0-0-1----4--1-3--|

F|-----------------------------------------------------------|
C|-----------------------------------------------------------|
G|---------------------------------------------------13--15--|
C|--12-0-0-12-0-0-12-0-0-12-0-0-12-0-0-12-0-0-12-0-0---------| x3
    and this cold dark place...

F|-------------------------------------------|
C|-------------------------------------------|
G|-------------------------------------------|
C|--12-0-0-12-0-0-12-0-0-12-0-0-1----4--1-3--|
    control..                        NO!

[Verse]
F|---------------------------------------------------------------------------------|
C|---------------------------------------------------------------------------------|
G|--5---5--5--5--5--5--3---3--3--3--3--3-------------------------------------------|
C|----------------------------------------5---5--5--5--5--5--8--8--8--8--8--8------|
    another day...

F|------------------------------------------------------------------------------|
C|------------------------------------------------------------------------------|
G|--5---5--0--7--8--7--3---3--0--8--7--5----------------------------------------|
C|----------------------------------------5---5--5--5--5--5--8--8--8--8--8--8---|
    but i cant...

F|------------------------------------------------------------------------------|
C|------------------------------------------------------------------------------|
G|--5---5--5--5--5--5--3---3--3--3--3--3----------------------------------------|
C|----------------------------------------5---5--5--5--5--5--8--8--8--8--8--8---|x2
    its getting deeper...

[Pre-Chorus]
F|---------------------------------------------------------------------------|
C|---------------------------------------------------------------------------|
G|---------------------------------------------------------------------------|
C|-5-5-5--5-5------8-8-8--8-8------12-12-12--12-12-----10-10-10--10-10-------| x2
   and those pretty eyes

[Chorus]
F|-----------------------------------------------------------|
C|-----------------------------------------------------------|
G|---------------------------------------------------13--15--|
C|--12-0-0-12-0-0-12-0-0-12-0-0-12-0-0-12-0-0-12-0-0---------|

F|-------------------------------------------|
C|-------------------------------------------|
G|-------------------------------------------|
C|--12-0-0-12-0-0-12-0-0-12-0-0-1----4--1-3--|

F|-----------------------------------------------------------|
C|-----------------------------------------------------------|
G|---------------------------------------------------13--15--|
C|--12-0-0-12-0-0-12-0-0-12-0-0-12-0-0-12-0-0-12-0-0---------|

F|-------------------------------------------|
C|-------------------------------------------|
G|-------------------------------------------|
C|--12-0-0-12-0-0-12-0-0-12-0-0-1----4--1-3--|

F|-----------------------------------------------------------|
C|-----------------------------------------------------------|
G|---------------------------------------------------13--15--|
C|--12-0-0-12-0-0-12-0-0-12-0-0-12-0-0-12-0-0-12-0-0---------| x3
    and this cold dark place...

F|-------------------------------------------|
C|-------------------------------------------|
G|-------------------------------------------|
C|--12-0-0-12-0-0-12-0-0-12-0-0-1----4--1-3--|
    control...                    GET OUT! GET OUT!

[Outro]
F|---------------------------------------------------------------------------|
C|---------------------------------------------------------------------------|
G|-------------------------1-------------------------------------------------|
C|-0-0-0--0-0-----0-0-0--0----1-----0-0-0--0-0----12-12-12-15---1-1-1-4------|

F|---------------------------------------------------------------------------|
C|---------------------------------------------------------------------------|
G|-------------------------1-------------------------------------------------|
C|-0-0-0--0-0-----0-0-0--0----1-----0-0-0--0-0-----0-0-0--0----1-------------|

F|-------------------|
C|-------------------|
G|-------------------|
C|-0-0-0--0-0--------|

F|---------------------------------------------------------------------------|
C|---------------------------------------------------------------------------|
G|-------------------------1-------------------------------------------------|
C|-0-0-0--0-0-----0-0-0--0----1-----0-0-0--0-0----0-0-0--0-0-----0-0-0--0-0--|
                                             Climb my way...

F|--------------------------------------|
C|--------------------------------------|
G|--------------------------------------|
C|--12-12-12-15---1-1-1-4---1-----------|
                             [Live] One, Two, Three, four!

[Outro]
F|----------------------------------------------------|
C|----------------------------------------------------|
G|----------------------------------------------------|
C|-0--0-12-0-0-15-0-0-5-0-0-8-0-0-1-0-0-4-0-0-1-4-0-0-|

F|----------------------------------------------------|
C|----------------------------------------------------|
G|----------------------------------------------------|
C|-0--0-12-0-0-15-0-0-5-0-0-8-0-0-1-0-0--0-0----------|

F|----------------------------------------------------------------|
C|----------------------------------------------------------------|
G|----------------------------------------------------------------|
C|-0--0-12-0-0-15-0-0-5-0-0-8-0-0-1-0-0-4-0-0-1-4-0--1-----4------|

F|----------------------------------------------------|
C|----------------------------------------------------|
G|----------------------------------------------------|
C|-0--0-12-0-0-15-0-0-5-0-0-8-0-0-1-0-0-4-0-0-1-4-0-0-|

F|----------------------------------------------------|
C|----------------------------------------------------|
G|----------------------------------------------------|
C|-0--0-12-0-0-15-0-0-5-0-0-8-0-0-1-0-0--1--1--1------|

F|----------------------------------------------------------------------|
C|----------------------------------------------------------------------|
G|----------------------------------------------------------------------|
C|-0--0-12-0-0-15-0-0-5-0-0-8-0-0-1-0-0-4-0-0-1-4-0--1-----4------0-----|

F|-----|
C|-----|
G|-----|
C|--0--|
  STOP

************************************

| \  Slide down

************************************
Suggest correction
Give kudos to tab author, rate the tab!
1 2 3 4 5
comments
print report bad tab
guest
You may want to rate the tab now too:
select rating
Wanna post a correction for this tab? Suggest correction