Oops, an error
Loading. Please wait.

High In Life Bass Tab

1 view 1 this week
no commentswrite comment
1 2 3 4 5
3 more votes to show rating
add to favorites
launch autoscroll
font size
0
reset
guitar tuner
Autoscroll
slow
fast
+/-
esc
set tempo
stop
Help us to improve Ultimate-Guitar.com Take our survey!
×
Author
Difficulty
Tuning
intermediate
C G C F A D
[Intro]

F|---------------------------------------------------------------------------------------------------|
C|---------------------------------------------------------------------------------------------------|
G|---------------------------------------------------------------------------------------------------|
C|-9--9--9-9-9--9-9-9--9-9--5--5--5-5-5--5-5-5--5-5--2--2--2-2-2--2-2-2--2-2--2--2--2-2-2--2-2-2--2-2| (x2)

[Verse]

F|---------------------------------------------------------------------------------------------------|
C|---------------------------------------------------------------------------------------------------|
G|---------------------------------------------------------------------------------------------------|
C|-9--9--9-9-9--9-9-9--9-9--9--9--9-9-9--9-9-9--9-9--5--5--5-5-2--2-2-2--2-2--9--9--9-9-9--9-9-9--9-9|


F|-----------------------------------------------------------------------------|
C|-----------------------------------------------------------------------------|
G|-----------------------------------------------------------------------------|
C|-9--9--9-9-9--9-9-9--9-9--9--9--9-9-9--9-9-9--9-9--5--5--5-5-2---2---2---2---|

[Pre-Chorus]

F|--------------------------------------------------------|
C|--------------------------------------------------------|
G|---------5-5-----------5-5----------5-5-----------5-5---|
C|-9--7-9--------9--7-9-------9--7-9--------9--7-9--------|(x2) 

[Chorus]

F|-------------------------------------------------------------|
C|-------------------------------------------------------------|
G|-------------------------------------------------------------|
C|-9--9--9-9-9--9-9-9--9-9--12--12--12-12-12--12-12-12--12-12--|

F|---------------------------------------------------|
C|---------------------------------------------------|
G|---------------------------------------------------|
C|-5--5--5-5-5--5-5-5--5-5--7--7--7-7-7--7-7-7--7-7--|(x2) [Both together]

[Bridge]

F|---------------------------------------------------------------------------------------------------|
C|---------------------------------------------------------------------------------------------------|
G|---------------------------------------------------------------------------------------------------|
C|-9--9--9-9-9--9-9-9--9-9--5--5--5-5-5--5-5-5--5-5--2--2--2-2-2--2-2-2--2-2--2--2--2-2-2--2-2-2--2-2|(x2)

[Verse]

F|---------------------------------------------------------------------------------------------------|
C|---------------------------------------------------------------------------------------------------|
G|---------------------------------------------------------------------------------------------------|
C|-9--9--9-9-9--9-9-9--9-9--9--9--9-9-9--9-9-9--9-9--5--5--5-5-2--2-2-2--2-2--9--9--9-9-9--9-9-9--9-9|


F|-----------------------------------------------------------------------------|
C|-----------------------------------------------------------------------------|
G|-----------------------------------------------------------------------------|
C|-9--9--9-9-9--9-9-9--9-9--9--9--9-9-9--9-9-9--9-9--5--5--5-5-2---2---2---2---|

[Pre-Chorus]

F|--------------------------------------------------------|
C|--------------------------------------------------------|
G|---------5-5-----------5-5----------5-5-----------5-5---|
C|-9--7-9--------9--7-9-------9--7-9--------9--7-9--------|(x2)

[Chorus]

F|-------------------------------------------------------------|
C|-------------------------------------------------------------|
G|-------------------------------------------------------------|
C|-9--9--9-9-9--9-9-9--9-9--12--12--12-12-12--12-12-12--12-12--|

F|---------------------------------------------------|
C|---------------------------------------------------|
G|---------------------------------------------------|
C|-5--5--5-5-5--5-5-5--5-5--7--7--7-7-7--7-7-7--7-7--|(x2) [Both together]

[Bridge]

F|---------------------------------------------------------------------------------------------------|
C|---------------------------------------------------------------------------------------------------|
G|---------------------------------------------------------------------------------------------------|
C|-9--9--9-9-9--9-9-9--9-9--5--5--5-5-5--5-5-5--5-5--2--2--2-2-2--2-2-2--2-2--2--2--2-2-2--2-2-2--2-2|(x2)

[Interlude]

F|---------------------------------------------------------------------------------------------------|
C|---------------------------------------------------------------------------------------------------|
G|---------------------------------------------------------------------------------------------------|
C|-9------------------------------------------9--5--5---2--2---9-------------------------------------|(x2)

F|---------------------------------------------------------------------------------|
C|---------------------------------------------------------------------------------|
G|---------------------------------------------------------------------------------|
C|-9------------------------------------------9--12--------------------------------|

F|---------------------------------------------------------------------------------|
C|---------------------------------------------------------------------------------|
G|---------------------------------------------------------------------------------|
C|-12--5----------------------------------------5--7---------------------------7---| (x2) [Both Together]

F|---------------------------------------------------------------------------------------------------|
C|---------------------------------------------------------------------------------------------------|
G|---------------------------------------------------------------------------------------------------|
C|-9------------------------------------------9--5--5---2--2---9-------------------------------------| 

F|----------------------------------------------------------------|
C|----------------------------------------------------------------|
G|----------------------------------------------------------------|
C|-9------------------------------------------9--5--5---2--2--2---| 

[Pre-Chorus]

F|--------------------------------------------------------|
C|--------------------------------------------------------|
G|---------5-5-----------5-5----------5-5-----------5-5---|
C|-9--7-9--------9--7-9-------9--7-9--------9--7-9--------| (x2)

F|--------------------------------------------------------|
C|--------------------------------------------------------|
G|---------5-------------5------------5-------------5-----|
C|-9--7-9--------9--7-9-------9--7-9--------9--7-9--------| (x2)

[Chorus]

F|-------------------------------------------------------------|
C|-------------------------------------------------------------|
G|-------------------------------------------------------------|
C|-9--9--9-9-9--9-9-9--9-9--12--12--12-12-12--12-12-12--12-12--|

F|---------------------------------------------------|
C|---------------------------------------------------|
G|---------------------------------------------------|
C|-5--5--5-5-5--5-5-5--5-5--7--7--7-7-7--7-7-7--7-7--| (x2) [Both together]

[Pre-Chorus]

F|--------------------------------------------------------|
C|--------------------------------------------------------|
G|---------5-5-----------5-5----------5-5-----------5-5---|
C|-9--7-9--------9--7-9-------9--7-9--------9--7-9--------| 

F|--------------------------------------------------------|
C|--------------------------------------------------------|
G|---------5-5-----------5-5----------5-5-----------------|
C|-9--7-9--------9--7-9-------9--7-9--------9--7-9--------|

F|--------------------------------------------------------|
C|--------------------------------------------------------|
G|---------5-------------5------------5-------------5-----|
C|-9--7-9--------9--7-9-------9--7-9--------9--7-9--------|

F|--------------------------------------------------------|
C|--------------------------------------------------------|
G|---------5-------------5------------5-------------------|
C|-9--7-9--------9--7-9-------9--7-9--------9--7-9--------|

F|--------------------------------------------------------|
C|--------------------------------------------------------|
G|---------5-------------5------------5-------------5-----|
C|-9--7-9--------9--7-9-------9--7-9--------9--7-9--------|

F|--------------------------------------------------------|
C|--------------------------------------------------------|
G|---------5-------------5--------------------------------|
C|-9--7-9--------9--7-9-------9--7-9--------9--7-9--------|
Suggest correction
Give kudos to tab author, rate the tab!
1 2 3 4 5
comments
print report bad tab
guest
You may want to rate the tab now too:
select rating
Wanna post a correction for this tab? Suggest correction