Oops, an error
Loading. Please wait.

Leather Bass Tab

4 views 1 this week
no commentswrite comment
1 2 3 4 5
3 more votes to show rating
add to favorites
launch autoscroll
font size
0
reset
guitar tuner
Autoscroll
slow
fast
+/-
esc
set tempo
stop
Help us to improve Ultimate-Guitar.com Take our survey!
×
Author
Difficulty
Tuning
intermediate
C G C F A D
[Intro]
F|--------------------------------------------------------------|
C|--------------------------------------------------------------|
G|---------------------------11---------------------------6-----|
C|-0--1--0-0--1-0--0--1-0-0-----0--1--0-0--1-0--0--1-0-0--------|

F|--------------------------------------------------------------------|
C|--------------------------------------------------------------------|
G|---------------------------4--6-6-6-6-6-6-6-6-----------------------|
C|-0--1--0-0--1-0--0--1-0-0---------------------6-6-6-6-11-11-11-11---|

F|------------------------------------------------------------------|
C|------------------------------------------------------------------|
G|--------------------------6----------------------------4--4--4----|
C|-0--1--0-0--1-0--0--1-0-0-----0--1--0-0--1-0--0--1-0-0------------|

F|--------------------------------------------------------------------|
C|--------------------------------------------------------------------|
G|---------------------------11--6-6-6-6-6-6-6-6----------------------|
C|-0--1--0-0--1-0--0--1-0-0---------------------6-6-6-6-11-11-11-11---|

[Verse]
F|------------------------------------------------------------------------------------------------------|
C|------------------------------------------------------------------------------------------------------|
G|-------------------------------------11--11--11-------------------6-6-6-6-6-6-6-6---------------------|
C|-0-1-0-0----------0-1-0-0-------------------------0-1-0-0-------------------------6-6-6-6-11-11-11-11-|

F|------------------------------------------------------------------------------------------------------|
C|------------------------------------------------------------------------------------------------------|
G|--------------------------------------6--6--6---------------------6-6-6-6-6-6-6-6---------------------|
C|-0-1-0-0----------0-1-0-0-------------------------0-1-0-0-------------------------6-6-6-6-11-11-11-11-|

[Chorus]
F|------------------------------------------------------|
C|------------------------------------------------------|
G|------------------------------------------------------|
C|-0--0---0-0-0--0-0-0--0-0-3--3---3-3-5--5-5-5---5-5---|

F|------------------------------------------------------|
C|------------------------------------------------------|
G|------------------------------------------------------|
C|-0--0---0-0-0--0-0-0--0-0-3--3---3-3-5--5-5-5---5-5---|

F|------------------------------------------------------|
C|------------------------------------------------------|
G|------------------------------------------------------|
C|----0---0-0-0--0-0-0--0-0-3--3---3-3-5--5-5-5---5-5---|

F|------------------------------------------------------|
C|------------------------------------------------------|
G|------------------------------------------------------|
C|-0--0---0-0-0--0-0-0--0-0-3--3---3-3-5--5-5-5---5-5---|

[Verse]
F|------------------------------------------------------------------------------------------------------|
C|------------------------------------------------------------------------------------------------------|
G|-------------------------------------11--11--11-------------------6-6-6-6-6-6-6-6---------------------|
C|-0-1-0-0----------0-1-0-0-------------------------0-1-0-0-------------------------6-6-6-6-11-11-11-11-|

F|------------------------------------------------------------------------------------------------------|
C|------------------------------------------------------------------------------------------------------|
G|--------------------------------------6--6--6---------------------6-6-6-6-6-6-6-6---------------------|
C|-0-1-0-0----------0-1-0-0-------------------------0-1-0-0-------------------------6-6-6-6-11-11-11-11-|

[Chorus]
F|------------------------------------------------------|
C|------------------------------------------------------|
G|------------------------------------------------------|
C|-0--0---0-0-0--0-0-0--0-0-3--3---3-3-5--5-5-5---5-5---|

F|------------------------------------------------------|
C|------------------------------------------------------|
G|------------------------------------------------------|
C|-0--0---0-0-0--0-0-0--0-0-3--3---3-3-5--5-5-5---5-5---|

F|------------------------------------------------------|
C|------------------------------------------------------|
G|------------------------------------------------------|
C|----0---0-0-0--0-0-0--0-0-3--3---3-3-5--5-5-5---5-5---|

F|------------------------------------------------------|
C|------------------------------------------------------|
G|------------------------------------------------------|
C|-0--0---0-0-0--0-0-0--0-0-3--3---3-3-5--5-5-5---5-5---|

[Breakdown]
F|---------------------------|
C|---------------------------|
G|---------------------------|
C|---3------3------3------3--|

F|---------------------------------------------------------------------------|
C|---------------------------------------------------------------------------|
G|---------------------------------------------------------------------------|
C|--12--10--0--8-------------------------3--5----0---------------------------| x8

^ Intensifies after 4

[Bass Solo]
F|--------------------------------------------------------------|
C|--------------------------------------------------------------|
G|---------------------------11---------------------------6-----|
C|-0--1--0-0--1-0--0--1-0-0-----0--1--0-0--1-0--0--1-0-0--------|

F|---------------------------------------------------|
C|---------------------------------------------------|
G|---------------------------4--6-6-6-6-6-6-6-6------|
C|-0--1--0-0--1-0--0--1-0-0---------------------6----|

[Bridge]
F|--------------------------------------------------------------|
C|--------------------------------------------------------------|
G|---------------------------11---------------------------6-----|
C|-0--1--0-0--1-0--0--1-0-0-----0--1--0-0--1-0--0--1-0-0--------|

F|--------------------------------------------------------------------|
C|--------------------------------------------------------------------|
G|---------------------------4--6-6-6-6-6-6-6-6-----------------------|
C|-0--1--0-0--1-0--0--1-0-0---------------------6-6-6-6-11-11-11-11---|

F|------------------------------------------------------------------|
C|------------------------------------------------------------------|
G|--------------------------6----------------------------4--4--4----|
C|-0--1--0-0--1-0--0--1-0-0-----0--1--0-0--1-0--0--1-0-0------------|

F|--------------------------------------------------------------------|
C|--------------------------------------------------------------------|
G|---------------------------11--6-6-6-6-6-6-6-6----------------------|
C|-0--1--0-0--1-0--0--1-0-0---------------------6-6-6-6-11-11-11-11---|

[Chorus]
F|------------------------------------------------------|
C|------------------------------------------------------|
G|------------------------------------------------------|
C|-0--0---0-0-0--0-0-0--0-0-3--3---3-3-5--5-5-5---5-5---|

F|------------------------------------------------------|
C|------------------------------------------------------|
G|------------------------------------------------------|
C|-0--0---0-0-0--0-0-0--0-0-3--3---3-3-5--5-5-5---5-5---|

F|------------------------------------------------------|
C|------------------------------------------------------|
G|------------------------------------------------------|
C|----0---0-0-0--0-0-0--0-0-3--3---3-3-5--5-5-5---5-5---|

F|------------------------------------------------------|
C|------------------------------------------------------|
G|------------------------------------------------------|
C|-0--0---0-0-0--0-0-0--0-0-3--3---3-3-5--5-5-5---5-5---|

[Outro]
F|--------------------------------------------------------------|
C|--------------------------------------------------------------|
G|---------------------------11---------------------------6-----|
C|-0--1--0-0--1-0--0--1-0-0-----0--1--0-0--1-0--0--1-0-0--------|

F|--------------------------------------------------------------------|
C|--------------------------------------------------------------------|
G|---------------------------4--6-6-6-6-6-6-6-6-----------------------|
C|-0--1--0-0--1-0--0--1-0-0---------------------6-6-6-6-11-11-11-11---|

F|------------------------------------------------------------------|
C|------------------------------------------------------------------|
G|--------------------------6----------------------------4--4--4----|
C|-0--1--0-0--1-0--0--1-0-0-----0--1--0-0--1-0--0--1-0-0------------|

F|-----------------------------------------------------------|
C|-----------------------------------------------------------|
G|---------------------------11--6-6-6-6-6-6-6-6-------------|
C|-0--1--0-0--1-0--0--1-0-0---------------------6-6-6-6-11---|
Suggest correction
Give kudos to tab author, rate the tab!
1 2 3 4 5
comments
print report bad tab
guest
You may want to rate the tab now too:
select rating
Wanna post a correction for this tab? Suggest correction