Oops, an error
Loading. Please wait.

Ssdd Bass Tab

4 views 1 this week
no commentswrite comment
1 2 3 4 5
3 more votes to show rating
add to favorites
launch autoscroll
font size
0
reset
guitar tuner
Autoscroll
slow
fast
+/-
esc
set tempo
stop
Help us to improve Ultimate-Guitar.com Take our survey!
×
Author
Difficulty
Tuning
intermediate
C G C F A D
[Guitar intro]

[Intro]

F|---------------------------------------------------|
C|---------------------------------------------------|
G|---------------------------------------------------|
C|-\0---------0----------0-7-------7-5-------------5-|

F|------------------------------------------------|
C|------------------------------------------------|
G|------------------------------------------------|
C|--0---------0----------0-7-7-7-7-7-7-7-7-5------|

[Drum Fill]

[Verse]

F|----------------------------|    |-----------------------------|
C|----------------------------|    |-----------------------------|
G|--------5-------------------|    |-----------------------------|
C|-0--0-0---0-0-0-5-0-0-8--1--| x3 |-1---1-1--1-1---4---4-4--4-4-| (All x2)

F|-------------------------------------------------------|
C|-------------------------------------------------------|
G|-------------------------------------------------------|
C|-0--0-0---0-0---0-0--0-0--8--8-8--8-8-8--5--5-5--5-5-5-| x2

F|----------------------------|    |-----------------------------|
C|----------------------------|    |-----------------------------|
G|--------5-------------------|    |-----------------------------|
C|-0--0-0---0-0-0-5-0-0-8--1--| x3 |-1---1-1--1-1---4---4-4--4-4-| (All x2)


[Chorus]

F|--------------------------------------------------|
C|--------------------------------------------------|
G|--------------------------------------------------|
C|-5--5-5---5-5---5-5--5-5--8--8-8---8-8---8-8--8-8-|

F|--------------------------------------------------------------|
C|--------------------------------------------------------------|
G|--------------------------------------------------------------|
C|-1--1-1----1-1---1-1--1-1-1-1--1---1-1--1-1-1--4---4-4--4-4-4-| (Both x2)


F|----------------------------|    |-----------------------------|
C|----------------------------|    |-----------------------------|
G|--------5-------------------|    |-----------------------------|
C|-0--0-0---0-0-0-5-0-0-8--1--| x3 |-1---1-1--1-1---4---4-4--4-4-| (All x2)

F|-------------------------------------------------------|
C|-------------------------------------------------------|
G|-------------------------------------------------------|
C|-0--0-0---0-0---0-0--0-0--8--8-8--8-8-8--5--5-5--5-5-5-| x2

[Pre-Breakdown]

F|----------------------------|    |-----------------------------|
C|----------------------------|    |-----------------------------|
G|--------5-------------------|    |-----------------------------|
C|-0--0-0---0-0-0-5-0-0-8--1--| x7 |-1---1-1--1-1---4---4-4--4-4-|

[Outro]

F|------------------------------------------------|
C|------------------------------------------------|
G|------------------------------------------------|
C|-0-0---0-0---0-0---0-0---0-0---0-0--0-0-5-0-0-8-| x2


F|------------------------------------------------|
C|------------------------------------------------|
G|---------5-----------------------5--------------|
C|-0-0---0------0-0-5-8-1---0-0--0------0-0-5-8-1-|

F|--------------------------------------------------|
C|--------------------------------------------------|
G|---------5-----------------------5----------------|
C|-0-0---0------0-0-5-8-1---0-0--0------0-0-5-0-0-8-|

F|------------------------------------------------|
C|------------------------------------------------|
G|---------5-----------------------5--------------|
C|-0-0---0------0-0-5-8-1---0-0--0------0-0-5-8-1-|

F|--------------------------------------------------|
C|--------------------------------------------------|
G|---------5-----------------------5----------------|
C|-0-0---0------0-0-5-8-1---0-0--0------0-0-5-0-0-8-|

F|-----------------------------------------------------------------|
C|-----------------------------------------------------------------|
G|-----------------------------------------------------------------|
C|-0--------------------------------------------------1------3-----| x2

F|-----------------------------------------------------------------|
C|-----------------------------------------------------------------|
G|-----------------------------------------------------------------|
C|-0-0-0---0-0-0-0-0--0-0-0--0-0-0-0-0--0-0-0--0-0-0--1-1-1--3-3-3-| x5 [FFF after 2x)

F|--------------------------------------------------------------------|
C|--------------------------------------------------------------------|
G|--------------------------------------------------------------------|
C|-0-0-0---0-0-0-0-0--0-0-0--0-0-0-0-0--0-0-0--0-0-0--1-0-0-5---1-3-0-|



************************************

| \   Slide down

************************************
Suggest correction
Give kudos to tab author, rate the tab!
1 2 3 4 5
comments
print report bad tab
guest
You may want to rate the tab now too:
select rating
Wanna post a correction for this tab? Suggest correction