Oops, an error
Loading. Please wait.

Schneesonneschnee tab

473 views 9 this week
no commentswrite comment
1 2 3 4 5
3 more votes to show rating
add to favorites
×
Save as Personal and add changes to this tab that will be seen only by you. Learn more ›
×
You can save this tab as Personal to edit and correct it or add notes. All changes will be seen only by you. Learn more »
launch autoscroll
font size
0
reset
how to read this tab
guitar tuner
edit
Autoscroll
slow
fast
+/-
esc
set tempo
stop
Author
Difficulty
[Intro/Verse]
 
         Am             F         C           Am            F         C
e|-----------------------------------|-----------------------------------|
B|-------------5--------8--5---------|-------------5--------8--5---------|
G|-----5--7-------7--5--------7-5----|-----5--7-------7--5--------7-5-7--|
D|--------------------------------5--|-----------------------------------|
A|-----------------------------------|-----------------------------------|
E|-----------------------------------|-----------------------------------|

Wir war'n groß und am Ende doch so klein
Wie so vieles checkt man's erst im Nachhinein
War'n so Feuer und so Flamme füreinander
Für die Momente bin ich dir unendlich dankbar

Wir war'n dabei und dabei völlig high (von uns)
Und plötzlich ging es ziemlich schnell vorbei
Ich habe nie kapiert, wie alles kam
Warum vom Himmel direkt in die Hölle fahr'n?


[Chorus]

         Am             F         C       G          Am            F         C       G
e|------------------------------------------|------------------------------------------|
B|-------------5--------8--5----------------|-------------5--------8--5----------------|
G|-----5--7-------7--5--------7-5-----------|-----5--7-------7--5--------7-5-7---------|
D|--------------------------------5---------|------------------------------------------|
A|------------------------------------------|------------------------------------------|
E|------------------------------------------|------------------------------------------|

Doch es is' ok
Es tut nicht mehr weh
Schneesonneschnee
'N Jahr vergeht, ade
Und es is' ok
Jetzt tut's nicht mehr weh
Schneesonneschnee
Ich bleib' nicht stehn, ade


[Verse 2]

Du hast mir gezeigt, was alles möglich ist
Warum zu viel davon irgendwann dann tödlich ist
Ich dachte immer, dass du viel zu viel rauchst
Jetzt tu' ich's selbst, weil ich den Atem nicht mehr brauch

Ich hab' für dich nie unsere Lieder gespielt
Und trotzdem hast du mich komplett gefühlt
Zwischen uns war'n doch ganz andere Dinge wichtig
Zwischen uns war'n doch verdammt viel Dinge richtig


[Chorus]

         Am             F         C       G          Am            F         C       G
e|------------------------------------------|------------------------------------------|
B|-------------5--------8--5----------------|-------------5--------8--5----------------|
G|-----5--7-------7--5--------7-5-----------|-----5--7-------7--5--------7-5-7---------|
D|--------------------------------5---------|------------------------------------------|
A|------------------------------------------|------------------------------------------|
E|------------------------------------------|------------------------------------------|

Doch es is' ok
Es tut nicht mehr weh
Schneesonneschnee
'N Jahr vergeht, ade
Und es is' ok
Jetzt tut's nicht mehr weh
Schneesonneschnee
Ich bleib' nicht stehn, ade


[Outro]

                                                Am            F      C
e|------8------------------------------|--------------------------------------|
B|------------10-----------------------|-------------5------------------------|
G|-------------------9-----------------|-----5--7-------7--5--7---5--5--------|
D|-------------------------------------|--------------------------------------|
A|----0-----8--------------------------|--------------------------------------|
E|-----------------8-------------------|--------------------------------------|

Wir ham geliebt, ham getrunken, sind versunken
Ham uns verändert, ham gestritten, sind ertrunken

Himmelhochjauchzt und todbetrübt liegt nah beisammen
Seitdem ist ein Jahr und ein Tag vergangen

            
            
Suggest correction
Creating personal tab
Creating personal tab
You can edit any tab online and save it as your Personal.

You can edit, replace or remove any tab part or add personal notes – all changes will be seen only by you.

Personal tabs can be accessed anytime from any device, even offline.
Learn more »
Give kudos to tab author, rate the tab!
1 2 3 4 5
comments
print report bad tab
guest
You may want to rate the tab now too:
select rating
Wanna post a correction for this tab? Suggest correction