Oops, an error
Loading. Please wait.

Springt Hoch tab

version 3
version 3

Whole song

Interactive

4,955 views 1 this week
no commentswrite comment
1 2 3 4 5
1 last vote to show rating
add to favorites
×
Save as Personal and add changes to this tab that will be seen only by you. Learn more ›
×
You can save this tab as Personal to edit and correct it or add notes. All changes will be seen only by you. Learn more »
launch autoscroll
font size
0
reset
how to read this tab
guitar tuner
edit
Autoscroll
slow
fast
+/-
esc
set tempo
stop
Author
----------------------------------------------------------------------------
                          SPRINGT HOCH  - KILLERPILZE

Tabbed by gogoguitar
Email:gogo1990@web.de

Tuning: EADGBE
 Intro(1. Guitar) 2x
     x  x  x  x     x                 x  x   x  x   x
e|------------------10--10---------|---------------------------------------|
B|---8--8-----------------------8~-|--8--8----------10--10-------8~--------|
G|---------7--7--------------------|---------7--7--------------------------|
D|
A|
E|

 after solo Intro (2. Guitar sets in) and guitar 1. goes on
e|-------------------------------------------------------------------------|
B|-------------------------------------------------------------------------|
G|--9------------7-----------5-----------2---------------------------------|
D|--9------------7-----------5-----------2---------------------------------|
A|--7------------5-----------3-----------0---------------------------------|
E|-------------------------------------------------------------------------|
 and then both guitars play this until the verse
e|-------------------------------------------------------------------------|
B|-------------------------------------------------------------------------|
G|--9------------7-----------5-----------2---------------------------------|
D|--9------------7-----------5-----------2---------------------------------|
A|--7------------5-----------3-----------0---------------------------------|
E|-------------------------------------------------------------------------|
verse is the same thing again
(1. Guitar) 2x
     x  x  x  x     x                 x  x   x  x   x
e|------------------10--10---------|---------------------------------------|
B|---8--8-----------------------8~-|--8--8----------10--10-------8~--------|
G|---------7--7--------------------|---------7--7--------------------------|
D|
A|
E|
 Verse the second guitar play this
e|-------------------------------------------------------------------------|
B|-------------------------------------------------------------------------|
G|--9------------7-----------5-----------2---------------------------------|
D|--9------------7-----------5-----------2---------------------------------|
A|--7------------5-----------3-----------0---------------------------------|
E|-------------------------------------------------------------------------|

V: Jetzt geht es los
   Die Party ist im gang
   Jeder der will
   Jeder der kommen kann
   ist herzlich eingeladen

After this songtext the first Guitar plays this

e|---------------------------------------------------------------------------|
B|---3--------3----------3----------3--------1----------1----1-------1-------|
G|-----0--------0------------0--------- 0--------0-------0-----0-------0-----|
D|-------2--------2-------------0----------0--------2-------2-----2------2---|
A|---------------------------------------------------------------------------|
E|---------------------------------------------------------------------------|
  and the second guitar goes on with the same

V.  Wir legen auf
    so praktisch rock n roll
    und sagen euch
    was jeder machen soll
    heut is einer der besonderen tage

  and then the first guitar plays this ( bridge)
e|-------------------------------------------------------------------------|
B|---------------------------------------0-----------------0---------------|
G|-------12--11-----------9--11-------------0-----------------0------------|
D|-------------------------------------------------------------------------|
A|----------------------------------3----------------0---------------------|
E|---12-----------10-10----------------------------------------------------|

Refrain goes like the intro from the second guitar and the bridge from the first guitar.
         OUTRO

E|----------------------------------------------------------------------|
B|----------------------------------------------------------------------|
G|----------------------------------------------------------------------|
D|----------------------------------------------------------------------|
A|-----------------------------------------------------------------7~---|
E|121212-111111-101010-999-888-777-666-555-444-333-222-111-0-0000-------|
                                                              xxx


I hope you have much fun. If something is wrong contact me at my e mail.
Ánd you should go on this side www.killerpilze.de (only german language)


                    GOGOGUITAR

            
            
Suggest correction
Creating personal tab
Creating personal tab
You can edit any tab online and save it as your Personal.

You can edit, replace or remove any tab part or add personal notes – all changes will be seen only by you.

Personal tabs can be accessed anytime from any device, even offline.
Learn more »
Give kudos to tab author, rate the tab!
1 2 3 4 5
comments
print report bad tab
guest
You may want to rate the tab now too:
select rating
Wanna post a correction for this tab? Suggest correction