Oops, an error
Loading. Please wait.

Eighties bass

version 1
version 1

Whole song

Interactive

5,052 views 30 this week
2 commentsread comments
1 2 3 4 5
x 9
add to favorites
×
Save as Personal and add changes to this tab that will be seen only by you. Learn more ›
×
You can save this tab as Personal to edit and correct it or add notes. All changes will be seen only by you. Learn more »
launch autoscroll
font size
0
reset
guitar tuner
backing track
0:00
0:00
edit
Autoscroll
slow
fast
+/-
esc
set tempo
stop
Title: Eighties (bass tab)
Artist: Killing Joke
Album: Night Time
Author: fluxcore (thanks to BillyMegaWatt)

Note all 4 strings are tuned down half a step.

Guitar intro
F#|--------|    
C#|--------|    
G#|--------| x 4
D#|--------|    


Main Lick
F#|---------------------------------|---------------------------------|
C#|---------------------------------|---------------------------------|
G#|---------------------0-----------|-----2-----------2-------0-------| x 11
D#|-2-------2-------2-------2---0---|-------------0-------------------|

Main Lick (end)
F#|---------------------------------|-----------------------|
C#|---------------------------------|-----------------------|
G#|---------------------0-----------|-----2-------0---------|
D#|-2-------2-------2-------2---0---|-----------------------|


"Chorus"
F#|---------------------------------|---------------------------|
C#|---------------------------------|---------------------------|
G#|---------4-----------5-----------|-6-----------7----9---7----| x 3
D#|-0---0-------0---0-------0---0---|-----0---0-----------------|

F#|---------------------------------|--------|
C#|---------------------------------|--------|
G#|---------4-----------5-----------|-7------|
D#|-0---0-------0---0-------0---0---|--------|


Repeat Main Lick x 7, Main Lick (end)


F#|---------------------------------|
C#|---------------------------------|
G#|---------------------------------| x 4
D#|-2---2-------2---2---2-------2---|


Repeat "Chorus"


"Bridge"
F#|---------------------------------|---------------------------------|
C#|-----------------------------2---|-----2-------0---2---0-----------|
G#|---------------------0---2-------|-------------------------2-------| x 4
D#|-2-------2-------2---------------|---------------------------------|


Guitar only section
F#|--------|--------|--------|--------|--------|--------|
C#|--------|--------|--------|--------|--------|--------|
G#|--------|--------|--------|--------|--------|--------|
D#|-14\----|--------|--------|--------|--------|--------|


Repeat Main Lick x 7, Main Lick (end)


F#|---------------------------------|
C#|---------------------------------|
G#|---------------------------------| x 4
D#|-2---2-------2---2---2-------2---|


Repeat Main Lick x 7, Main Lick (end)


Repeat "Bridge" x 4


Repeat Main Lick to fade

            
            
Suggest correction
Creating personal tab
Creating personal tab
You can edit any tab online and save it as your Personal.

You can edit, replace or remove any tab part or add personal notes – all changes will be seen only by you.

Personal tabs can be accessed anytime from any device, even offline.
Learn more »
comments
print report bad tab
2 comments total.
0 reply
Mooseharris 10 Jun 14, 2017 04:09 PM

Spot on sir.

0 reply
firedance1989 119 Jul 26, 2017 02:23 PM

Great tab, that's exactly how I play it except I tune down a full step

guest
Wanna post a correction for this tab? Suggest correction