Oops, an error
Loading. Please wait.

Eighties tab

version 2
version 2

Whole song

Interactive

4,247 views 6 this week
3 commentsread comments
1 2 3 4 5
x 7
add to favorites
×
Save as Personal and add changes to this tab that will be seen only by you. Learn more ›
×
You can save this tab as Personal to edit and correct it or add notes. All changes will be seen only by you. Learn more »
launch autoscroll
font size
0
reset
how to read this tab
guitar tuner
backing track
0:00
0:00
edit
Autoscroll
slow
fast
+/-
esc
set tempo
stop
Author
----------------------------------------------------------------------------
                             eighties-killing joke
----------------------------------------------------------------------------
Tabbed by: rocky...rolly


Tuning:Standard

e|----------------------------------------------------------------------------------|
B|----------------------------------------------------------------------------------|
G|----------------------------------------------------------------------------------|
D|----------------------------------------------------------------------------------|
A|----------0---0---------2-----2---------------------------------------------------|
E|--0-0-1-2---2---2-2-1-0---0-0-----------------------------------------------------|

this is the only part i can really remember... i know it looks like come as you are by 
BUT nirvana stole this riff...so yeah!

            
            
Suggest correction
Creating personal tab
Creating personal tab
You can edit any tab online and save it as your Personal.

You can edit, replace or remove any tab part or add personal notes – all changes will be seen only by you.

Personal tabs can be accessed anytime from any device, even offline.
Learn more »
comments
print report bad tab
3 comments total.
0 reply
Cazman 190 Apr 27, 2013 07:08 AM

2,000 views and not one comment about how shitty this "tab" is? It's just the main riff of Come As You Are!

0 reply
HokutoNoKen 10 Nov 24, 2013 04:44 AM

lolfail, the correct tab would be

A-----0---0-----------2--0----------0---0---------2-----------
E-2-2---2---2--1-0---0------0-1-2-2---2---2-1-0--0------------

And killing joke took the riff originally from The Damned's "Life Goes On" not that it matters, all 3 songs are brilliant and different enough despite a similar riff.

0 reply
Geweelt 138 Jan 28, 2016 03:24 PM

man, seriously? they don't even sound alike. and it asks me to enter at least 15 words, here they are

guest
You may want to rate the tab now too:
select rating
Wanna post a correction for this tab? Suggest correction