Oops, an error
Loading. Please wait.

Millenium Bass Tab

382 views 1 this week
no commentswrite comment
1 2 3 4 5
3 more votes to show rating
add to favorites
launch autoscroll
font size
0
reset
guitar tuner
Autoscroll
slow
fast
+/-
esc
set tempo
stop
Help us to improve Ultimate-Guitar.com Take our survey!
×
Author
Tuning
D A D G B E
Intro:

G|----------------|
D|-----0-----0h2--|
A|-0h2---0h2------|
D|----------------|

Main line:

G|----------------------------------------------------|
D|----------------------------------------------------|
A|----------------------------------------------------|
D|-2-2-2-2--5--2-2-2-2--0--2-2-2-2--5--2-5-4-3-5-4-3--|

G|-----------------------------------------------|
D|-----------------------------------------------|
A|-----------------------------------------------|
D|-2-2-2-2--5--2-2-2-2--0--2-2-2-2--5--3----1----|

G|----------------------------------------------------|
D|----------------------------------------------------|
A|----------------------------------------------------|
D|-2-2-2-2--5--2-2-2-2--0--2-2-2-2--5--2-5-4-3-5-4-3--|

G|----------------------------------------------------|
D|-----------------------------------------0-----0h2--|
A|-------------------------------------0h2---0h2------|
D|-2-2-2-2--5--2-2-2-2--0--2-2-2-2--5-----------------|

Interlude between verses and pre-chorus:

G|----------------------------------------------------|
D|----------------------------------------------------|
A|----------------------------------------------------| x2
D|-3---2-2-2-2-3---2-2-2-2-3---2-2-2-2-3--------------|

Pre-chorus:

G|--------------------------------------------------------------------|
D|--------------------------------------------------------------------|
A|--------------------------------------------------------------------| x2
D|-2-2-2-2-210-210--2-2-2-2-210-210--2-2-2-2-210-210--2-2-2-2-210-210-|

Chorus:

G|-------------------------------------------------------------------|
D|-------------------------------------------------------------------|
A|------------------0-0-0-0-0-0-0-0--3-3-3-3-3-3-3-3-----------------| 
D|-2-2-2-2-2-2-2-2-----------------------------------5-5-5-5-5-3-3-3-|

Interlude:

G|----------------------------------|
D|----------------------------------|
A|----------------------------------| x3
D|-2-2-2-2--2-2-2-2--2-2-2-2--------|

G|----------------------------------|
D|-----------------------0-----0h2--|
A|-------------------0h2---0h2------| 
D|-2-2-2-2--2-2-2-2-----------------|

Bridge:

G|---------------------------------|
D|---------------------------------|
A|---------------------------------| x4
D|-2-2-2-2-2-2-2-2-2-2-2-2-2-2-2-2-|

Tabbed by Juan M. Fozzatti.
Suggest correction
Give kudos to tab author, rate the tab!
1 2 3 4 5
comments
print report bad tab
guest
You may want to rate the tab now too:
select rating
Wanna post a correction for this tab? Suggest correction