Oops, an error
Loading. Please wait.

The Death And Resurrection Show tab

version 1
version 1

Whole song

Interactive

8,380 views 21 this week
4 commentsread comments
1 2 3 4 5
x 4
add to favorites
×
Save as Personal and add changes to this tab that will be seen only by you. Learn more ›
×
You can save this tab as Personal to edit and correct it or add notes. All changes will be seen only by you. Learn more »
launch autoscroll
font size
0
reset
how to read this tab
guitar tuner
backing track
0:00
0:00
edit
Autoscroll
slow
fast
+/-
esc
set tempo
stop
Difficulty
intermediate
THE DEATH AND RESURRECTION SHOW . Album : Killing Joke 2003
                Updated jan .18 2006

INTRO / VERSES . All palm-muted.

D------------------|
A------------------|
F------------------|
C-2--2---2--2---2--|
G-0--0---1--0---1--|
D------------------|

CHORUS. Let ring all the strings…

D-------------------------------------------------------------------|
A------------------4-------------3--3-3--5--5---3-------------------|
F-5--5-5—-4-^5--5--4--4--4---4---3--3-3--3--3---3---2--2-2^3-2--2-2-|
C-2--2-2--2--2--2--2--2--2---2---2--2-2--2--2---2---2--2-2---2--2-2-|
G-0--0-0—-0--0--0--0--0--0---0---0--0-0--0--0---0---0--0-0---0--0-0-|
D-------------------------------------------------------------------|

KNOCKS.

D-----------|
A-----------|
F-2-2--2-2--|
C-2-2--2-2--|
G-0-0--0-0--|
D-----------|

            
            
Suggest correction
Creating personal tab
Creating personal tab
You can edit any tab online and save it as your Personal.

You can edit, replace or remove any tab part or add personal notes – all changes will be seen only by you.

Personal tabs can be accessed anytime from any device, even offline.
Learn more »
comments
print report bad tab
4 comments total. Showing first comments.
0 reply
tabazan 73 Mar 30, 2006 02:07 AM

KJ tabs posted by anthony (TABAZAN@NETCOURRIER).
Most of Killing Joke guitar riffs sonds nice with a "crunchy" sound, with a bit of "vintage" chorus and delay (300ms or so).

0 reply
Razza999 101 Jun 17, 2007 12:19 PM

could you play the intro with normal tunning:
e|------------|
B|------------|
G|------------|
D|-5-5-6-5--6-|
A|-5-5-6-5--6-|
E|-4-4-5-4--5-|
PM . . . . .

just with really grungy effects on amp? i find it easier as a beginner myself

0 reply
japunk 138 Feb 07, 2008 09:28 PM

intermediate?? even a kid can play that :P

guest
Wanna post a correction for this tab? Suggest correction