Oops, an error
Loading. Please wait.

The Death And Resurrection Show Tab

version 2
version 2

Intro

Whole song

Interactive

640 views 6 this week
no commentswrite comment
1 2 3 4 5
worth learning
x 1
add to favorites
launch autoscroll
font size
0
reset
how to read this tab
guitar tuner
Tab Pro tools
  • play this tab
  • loop segment
  • change instrument
  • show fretboard
  • metronome
Autoscroll
slow
fast
+/-
esc
set tempo
stop
Contributor
Difficulty
Tuning
intermediate
D G C F A D
                          THE DEATH & RESURRECTION SHOW
                           As recorded by Killing Joke
                       (From the 2003 Album KILLING JOKE)

Words by Jaz Coleman

Music by Andy Gill, Martin "Youth" Glover & Kevin "Geordie" Walker
Transcribed by BaronLundi

Tuning (D G C F A D)

Q=100
4/4

    PM----------------|              PM--------|
    S E S E E S E S E E 12x S E S E. S S E S E E
||-----------------------||----------------------|
||o---------------------o||----------------------|
||-----------------------||----------------------|
||--2-2-3-2-2-2-2-3-2-2--||-2-2-2-2--3-2-2-3-2-2-|
||o-0-0-1-0-1-0-0-1-0-1-o||-0-0-0-0--1-0-0-1-0-1-|
||-----------------------||----------------------|


  PM----------------------------|          PM
  S E S E E S E S E E   S E S E E S E S E. S
|---------------------|----------------------|
|---------------------|----------------------|
|---------------------|----------------------|
|-2-2-3-2-2-2-2-3-2-2-|-2-2-3-2-2-2-2-2-2--3-|
|-0-0-1-0-1-0-0-1-0-1-|-0-0-1-0-1-0-0-0-0--1-|
|---------------------|----------------------|


  PM----------------------------|
  S E S E E S E S E E   S E S E E H
|---------------------|----------------|
|---------------------|----------------|
|---------------------|----------------|
|-2-2-3-2-2-2-2-3-2-2-|-2-2-3-2-2------|
|-0-0-1-0-1-0-0-1-0-1-|-0-0-1-0-1------|
|---------------------|----------------|


    PM----------------|
    S E S E E S E S E E  8x
||-----------------------||-|
||o---------------------o||-|
||-----------------------||-|
||--2-2-3-2-2-2-2-3-2-2--||-|
||o-0-0-1-0-1-0-0-1-0-1-o||-|
||-----------------------||-|


     Q  +E   E  +S   E. +Q      Q  +E   E  +S   E. +Q
||---------------------------|--------------------------|
||o--------------------------|-^4--(4)----------4--(4)--|
||--^5--(5)--4--(4)--5--(5)--|-^4--(4)--4--(4)-(4)-(4)--|
||--^2--(2)-(2)-(2)-(2)-(2)--|-^2--(2)-(2)-(2)-(2)-(2)--|
||o-^0--(0)-(0)-(0)-(0)-(0)--|-^0--(0)-(0)-(0)-(0)-(0)--|
||---------------------------|--------------------------|


   Q.    E  +S   E.  Q      Q.    S   S  +S   E. +Q
|--------0--(0)--1-------|-----------------------------||
|-^3----(3)-(3)-(3)--3---|----------------------------o||
|-^3----(3)-(3)-(3)-(3)--|-^2-----3---3--(3)--2--(2)---||
|-^0----(0)-(0)-(0)-(0)--|-^2----(2)-(2)-(2)-(2)-(2)---||
|------------------------|-^0----(0)-(0)-(0)-(0)-(0)--o||
|------------------------|-----------------------------||


      PM----------------|
      S E S E E S E S E E 16x
|-||-----------------------||
|-||o---------------------o||
|-||-----------------------||
|-||--2-2-3-2-2-2-2-3-2-2--||
|-||o-0-0-1-0-1-0-0-1-0-1-o||
|-||-----------------------||


     Q  +E   E  +S   E. +Q      Q  +E   E  +S   E. +Q
||---------------------------|--------------------------|
||o--------------------------|-^4--(4)----------4--(4)--|
||--^5--(5)--4--(4)--5--(5)--|-^4--(4)--4--(4)-(4)-(4)--|
||--^2--(2)-(2)-(2)-(2)-(2)--|-^2--(2)-(2)-(2)-(2)-(2)--|
||o-^0--(0)-(0)-(0)-(0)-(0)--|-^0--(0)-(0)-(0)-(0)-(0)--|
||---------------------------|--------------------------|


   Q.    E  +S   E.  Q      Q.    S   S  +S   E. +Q    6x
|--------0--(0)--1-------|-----------------------------||
|-^3----(3)-(3)-(3)--3---|----------------------------o||
|-^3----(3)-(3)-(3)-(3)--|-^2-----3---3--(3)--2--(2)---||
|-^0----(0)-(0)-(0)-(0)--|-^2----(2)-(2)-(2)-(2)-(2)---||
|------------------------|-^0----(0)-(0)-(0)-(0)-(0)--o||
|------------------------|-----------------------------||


    PM----------------|
    S E S E E S E S E E 16x
||-----------------------||-|
||o---------------------o||-|
||-----------------------||-|
||--2-2-3-2-2-2-2-3-2-2--||-|
||o-0-0-1-0-1-0-0-1-0-1-o||-|
||-----------------------||-|


     Q  +E   E  +S   E. +Q      Q  +E   E  +S   E. +Q
||---------------------------|--------------------------|
||o--------------------------|-^4--(4)----------4--(4)--|
||--^5--(5)--4--(4)--5--(5)--|-^4--(4)--4--(4)-(4)-(4)--|
||--^2--(2)-(2)-(2)-(2)-(2)--|-^2--(2)-(2)-(2)-(2)-(2)--|
||o-^0--(0)-(0)-(0)-(0)-(0)--|-^0--(0)-(0)-(0)-(0)-(0)--|
||---------------------------|--------------------------|


                                                                   PM--------|
   Q.    E  +S   E.  Q      Q.    S   S  +S   E. +Q    5x S E S E. S S E S E E
|--------0--(0)--1-------|-----------------------------||----------------------|
|-^3----(3)-(3)-(3)--3---|----------------------------o||----------------------|
|-^3----(3)-(3)-(3)-(3)--|-^2-----3---3--(3)--2--(2)---||----------------------|
|-^0----(0)-(0)-(0)-(0)--|-^2----(2)-(2)-(2)-(2)-(2)---||-2-2-2-2--3-2-2-3-2-2-|
|------------------------|-^0----(0)-(0)-(0)-(0)-(0)--o||-0-0-0-0--1-0-0-1-0-1-|
|------------------------|-----------------------------||----------------------|


    PM----------------|
    S E S E E S E S E E  3x S E S Q  H        W    15x
||-----------------------||---------------||--------||
||o---------------------o||---------------||o------o||
||-----------------------||---------------||--------||
||--2-2-3-2-2-2-2-3-2-2--||-2-2-2-2-------||--------||
||o-0-0-1-0-1-0-0-1-0-1-o||-0-0-0-0-------||o------o||
||-----------------------||---------------||--------||


     Q  +E   E  +S   E. +Q      Q  +E   E  +S   E. +Q
||---------------------------|--------------------------|
||o--------------------------|-^4--(4)----------4--(4)--|
||--^5--(5)--4--(4)--5--(5)--|-^4--(4)--4--(4)-(4)-(4)--|
||--^2--(2)-(2)-(2)-(2)-(2)--|-^2--(2)-(2)-(2)-(2)-(2)--|
||o-^0--(0)-(0)-(0)-(0)-(0)--|-^0--(0)-(0)-(0)-(0)-(0)--|
||---------------------------|--------------------------|


   Q.    E  +S   E.  Q      Q.    S   S  +S   E. +Q
|--------0--(0)--1-------|-----------------------------||
|-^3----(3)-(3)-(3)--3---|----------------------------o||
|-^3----(3)-(3)-(3)-(3)--|-^2-----3---3--(3)--2--(2)---||
|-^0----(0)-(0)-(0)-(0)--|-^2----(2)-(2)-(2)-(2)-(2)---||
|------------------------|-^0----(0)-(0)-(0)-(0)-(0)--o||
|------------------------|-----------------------------||


    PM----------------|
    S E S E E S E S E E  8x      Q  +E   E  +S   E. +Q
||-----------------------||-||---------------------------|
||o---------------------o||-||o--------------------------|
||-----------------------||-||--^5--(5)--4--(4)--5--(5)--|
||--2-2-3-2-2-2-2-3-2-2--||-||--^2--(2)-(2)-(2)-(2)-(2)--|
||o-0-0-1-0-1-0-0-1-0-1-o||-||o-^0--(0)-(0)-(0)-(0)-(0)--|
||-----------------------||-||---------------------------|


   Q  +E   E  +S   E. +Q      Q.    E  +S   E.  Q      Q.    S   S  +S   E. +Q      7x
|--------------------------|--------0--(0)--1-------|-------------------------------||
|-^4--(4)----------4--(4)--|-^3----(3)-(3)-(3)--3---|------------------------------o||
|-^4--(4)--4--(4)-(4)-(4)--|-^3----(3)-(3)-(3)-(3)--|-^2-----3---3--(3)--2--(2)-----||
|-^2--(2)-(2)-(2)-(2)-(2)--|-^0----(0)-(0)-(0)-(0)--|-^2----(2)-(2)-(2)-(2)-(2)-----||
|-^0--(0)-(0)-(0)-(0)-(0)--|------------------------|-^0----(0)-(0)-(0)-(0)-(0)----o||
|--------------------------|------------------------|-------------------------------||


   Q  +E   E  +S   E. +Q      Q  +E   E  +S   E. +Q
|--------------------------|--------------------------|
|--------------------------|-^4--(4)----------4--(4)--|
|-^5--(5)--4--(4)--5--(5)--|-^4--(4)--4--(4)-(4)-(4)--|
|-^2--(2)-(2)-(2)-(2)-(2)--|-^2--(2)-(2)-(2)-(2)-(2)--|
|-^0--(0)-(0)-(0)-(0)-(0)--|-^0--(0)-(0)-(0)-(0)-(0)--|
|--------------------------|--------------------------|


   Q.    E  +S   E.  Q      H    S E S Q
|--------0--(0)--1-------|-----------------*|
|-^3----(3)-(3)-(3)--3---|-----------------*|
|-^3----(3)-(3)-(3)-(3)--|-^2--------------*|
|-^0----(0)-(0)-(0)-(0)--|-^2----2-2-2-2---*|
|------------------------|-^0----0-0-0-0---*|
|------------------------|-----------------*|


Duration Legend
---------------
W - whole; H - half; Q - quarter; E - 8th; S - 16th; T - 32nd; X - 64th; a - acciaccatura
+ - note tied to previous; . - note dotted; .. - note double dotted


Tablature Legend
----------------
 h   - hammer-on
 p   - pull-off
 b   - bend
 pb  - pre-bend
 r   - bend release (if no number after the r, then release immediately)
 /\  - slide into or out of (from/to "nowhere")
 s   - legato slide
 S   - shift slide
  - natural harmonic
[n]  - artificial harmonic
n(n) - tapped harmonic
 ~   - vibrato
 tr  - trill
 T   - tap
 TP  - trem. picking
 PM  - palm muting
\n/  - tremolo bar dip; n = amount to dip
 \n  - tremolo bar down
 n/  - tremolo bar up
/n\  - tremolo bar inverted dip
 =   - hold bend; also acts as connecting device for hammers/pulls
 <>  - volume swell (louder/softer)
 x   - on rhythm slash represents muted slash
 o   - on rhythm slash represents single note slash

Misc Legend
-----------
 |  - bar
||  - double bar
||o - repeat start
o|| - repeat end
*|  - double bar (ending)
 :  - bar (freetime)
 $  - Segno
 &  - Coda
Tempo markers -  = BPM(8/16=s8/s16), where s8 = swing 8ths, s16 = swing 16ths
comments
We did not receive enough feedback on this tab! Please rate:
print report bad tab
1 2 3 4 5
I want to post or [tab]
guest
You may want to rate the tab now too:
select rating
Please do not post tabs as comments. Select "correction" instead!