Oops, an error
Loading. Please wait.

The Wait Bass

402 views 3 this week
no commentswrite comment
1 2 3 4 5
3 more votes to show rating
add to favorites
×
Save as Personal and add changes to this tab that will be seen only by you. Learn more ›
×
You can save this tab as Personal to edit and correct it or add notes. All changes will be seen only by you. Learn more »
save as personal
new!
launch autoscroll
font size
0
reset
guitar tuner
Autoscroll
slow
fast
+/-
esc
set tempo
stop
Author
-------------------------------------------------------------------------------
                             Killing Joke - The Wait
-------------------------------------------------------------------------------
Tabbed by:Zakkbassist
E-mail: zakkbassist@gmail.com
Bassist: Martin "Youth" Glover
From the 1980 Album "Killing Joke". 
Tuning:EADG
                                     Intro

G|---------------------------------------------------------------------------|
D|---------------------------------------------------------------------------|
A|---------8---------------8---------------8---------------8-----------------|
E|-0---------------0---------------0---------------0----------------0--------|
                              Main Riff (Mix it up a bit)
G|---------------------------------------------------------------------------|
D|---------------------1-----------------------------------------------------| 
A|-------------------2---3---------------------------------------------------|
E|-00-00-0--0-00-0-1-------------00-00-0--0-00-0-1111------------------------|
                                    Chorus
G|---------------------------------------------------------------------------|
D|----------------------------333333333--------------------------------------|
A|-00000000-22222222-33333333------------------------------------------------|
E|---------------------------------------------------------------------------|
                                    Bridge 
G|---------------------------------------------------------------------------|
D|---------------------------------------------------------------------------|
A|---------------------------------------------------------------------------|
E|-00--00--0-----------------------------------------------------------------|



| /  slide up
| \  slide down
| h  hammer-on
| p  pull-off
| ~  vibrato
| +  harmonic
| x  Mute note
===============================================================================
Suggest correction
Give kudos to tab author, rate the tab!
1 2 3 4 5
comments
print report bad tab
guest
You may want to rate the tab now too:
select rating
Wanna post a correction for this tab? Suggest correction