Oops, an error
Loading. Please wait.

By 2 Am Chords

13 views 1 this week
no commentswrite comment
1 2 3 4 5
3 more votes to show rating
add to favorites
launch autoscroll
font size
0
reset
transpose
0
reset
display chords
guitar tuner
Autoscroll
slow
fast
+/-
esc
set tempo
stop
Help us to improve Ultimate-Guitar.com Take our survey!
×
Author
Difficulty
Capo
intermediate
2nd fret
[Intro]

e|-----4--------4--------4--------4--|-----4--------4--------4--------4--|
B|-------5--------5--------5--------5|-------5--------5--------5--------5|
G|---4--------4--------4--------4----|---6--------6--------6--------6----|
D|-2--------2--------2--------2------|-6--------6--------6--------6------|
A|-----------------------------------|-----------------------------------|
E|-----------------------------------|-----------------------------------|



[Verse 1]

Daisy:
D
Raise your hand


Tyler:
                   Bm
If you want to get laid tonight


Daisy:
                  Gm
If you just wanna play tonight
                   A
If You Just Turned Gay tonight


Misty:
D
Play Your cards right girls


Sid:
                    Bm
The plans might get pretty


Daisy:
                    Gm
Or things could get shitty
                      A
If we don't watch the time



Daisy, Tyler, Colby, Misty, Sid:
D
Our game plans are different
                              Bm
But strangely our goals don't differ


Daisy:
 Bm             
A night without drama


Tyler:
             Gm
A hot sweaty blur


Colby:
                     A
By 2 A.M. I hope I'm naked with her


Daisy:
A
Seriously I'm not listening
N.C.
lalalalalala


[Chorus]

Daisy, Tyler, Colby, Misty, Sid:
G                    A
By 2 A.M. I hope I'm naked with her
D
Painted with her
Bm
Sainted by her
G               A
By 2 A.M. VERY acquainted with her
Bm
Covered in grass stains
Bm
Wrapped up in faux fur
G
By 2 A.M.


Colby:
    A
Not 1 A.M.


Daisy, Tyler, Colby, Misty, Sid:
D                         Bm
'Cause I've got things to do
G           A                   D
By 2 A.M. I hope I'm naked with her


[Verse 2]

Misty:
D                                   Bm
Drop your plans and let's chase the glamour


Sid:
               Gm
A Night to get hammered


Daisy:
              A
And avoid the slammer
A
Unless thats your thing


Misty: 
D                                        Bm
We shut of the phones and shoot from the hip


Colby:
Bm
A dark sticky rock show


Tyler:
               Gm
A club off the strip


Misty;
Gm
This nights looking up
                   A
Let's see where it goes


Colby:
                                       G
Let's hope hookin' up then loosen some clothes


[Chorus]

Daisy, Tyler, Colby, Misty, Sid:
G          A
I hope I'm naked with her
D
New born inspired
Bm
Zero attire
G                  A
By 2 A.M. hot on a wardrobe that's style
Bm
Clothes just fall off us Morisa Tomei Style
G
By 2 A.M.
A
Not 1 A.M.
D                          Bm
'Cause We've got things to do
G           A
By 2 A.M. I hope I'm Naked with her

D   N.C.   D        Bm        Bm        Gm         Gm         
    hey        hey      hey       hey        hey        hey 

A

[Outro]


e|-----4--------4--------4--------4--|-----4--------4--------4--------4--|
B|-------5--------5--------5--------5|-------5--------5--------5--------5|
G|---4--------4--------4--------4----|---4--------4--------4--------4----|
D|-2--------2--------2--------2------|-2--------2--------2--------2------|
A|-----------------------------------|-----------------------------------|
E|-----------------------------------|-----------------------------------|
Suggest correction
Give kudos to tab author, rate the tab!
1 2 3 4 5
comments
print report bad tab
guest
You may want to rate the tab now too:
select rating
Wanna post a correction for this tab? Suggest correction