Oops, an error
Loading. Please wait.

A Bid Farewell Tab

version 1
version 1

Whole song

Interactive

23,964 views 18 this week
7 commentsread comments
1 2 3 4 5
x 12
add to favorites
launch autoscroll
font size
0
reset
how to read this tab
guitar tuner
×
Best way to learn
"A Bid Farewell"
Autoscroll
slow
fast
+/-
esc
set tempo
stop
Band-Killswitch Engage
Song-A Bid Farewell
Album-The End Of Heartache
Instrument-Guitar

Tuning- CGCFAD

Riffs are in order.Just figure out how many times to play them

Intro (Gtr.1)
D|-------------|
A|----------10-|
F|---8---8-----|
C|-0---0-------|
G|-------------|
C|-------------|

Intro (Gtr.2)
D|-------------------------------------|
A|-------------------------------------|
F|-------------------------------------|
C|-000-0-0-0--000-0-0-0--000-0-0-000-3-|
G|-000-0-0-0--000-0-0-0--000-0-0-000-3-|
C|-000-0-0-0--000-0-0-0--000-0-0-000-3-|
pm ... . . .  ... . . .  ... . . ...

Verse (Both Guitars)
D|-------------------------------------------|
A|-------------------------------------------|
F|-------------------------------------------|
C|-------------------------------------------|
G|-------------------------------------------|
C|-000-1/2-0-0--000-1/2-0-0--000-1/2-000-2/3-|
pm ...     . .  ...     . .  ...     ...

Verse Fill
D|------------|
A|------------|
F|------------|
C|------------|
G|------------|
C|-000-1/2-0-0|
pm ...     . .

Verse 2 (Both Guitars)
D|-------------------------------------|
A|-------------------------------------|
F|-------------------------------------|
C|-000-0-0-0--000-0-0-0--000-0-0-000-3-|
G|-000-0-0-0--000-0-0-0--000-0-0-000-3-|
C|-000-0-0-0--000-0-0-0--000-0-0-000-3-|
pm ... . . .  ... . . .  ... . . ...

Verse 3
D|-------------------------------------------|
A|-------------------------------------------|
F|-------------------------------------------|
C|-000-1/2-0-0--000-1/2-0-0--000-1/2-000-2/3-|
G|-000-1/2-0-0--000-1/2-0-0--000-1/2-000-2/3-|
C|-------------------------------------------|
pm ...     . .  ...     . .  ...     ...

Pre-Chorus 1
D|---------------------------------------------------------------------------------|
A|---------------------------------------------------------------------------------|
F|---------------------------------------------------------------------------------|
C|-7-7-7-7-5-5-5-5-3-3-3-3-7-7-7-7-5-5-5-5-3-3-3-3-5-5-5-5-3-3-3-3-2-2-2-2-5-5-5-5-|
G|---------------------------------------------------------------------------------|
C|---------------------------------------------------------------------------------|

Pre-Chorus 1 (Con't)
D|------------------------------------------------------------------|
A|------------------------------------------------------------------|
F|------------------------------------------------------------------|
C|-3-3-3-3-2-2-2-2--2-2-2-2-2-2-3-3-3-3-3-3-5-5-5-3-3-3-3-3-3-3-3-3-|
G|------------------------------------------------------------------|
C|------------------------------------------------------------------|

Pre-Chorus 2
D|-----------------------------------------------------------------------------|
A|-----------------------------------------------------------------------------|
F|-----------------------------------------------------------------------------|
C|-7-7-7-7-5-5-5-5-3-3-3-3-7-7-7-7-5-5-5-5-3-3-3-3-10-10-10-10-7-7-7-7-5-5-5-5-|
G|-----------------------------------------------------------------------------|
C|-----------------------------------------------------------------------------|

Pre-Chorus 2 (Con't)
D|----------------------------------------------------------------------|
A|----------------------------------------------------------------------|
F|----------------------------------------------------------------------|
C|-10-10-10-10-7-7-7-7-5-5-5-5-2-2-2-2-2-2-3-3-3-3-3-3-5-5-3-3-3-3--12\-|
G|------------------------------------------------------------------12\-|
C|------------------------------------------------------------------12\-|

Chorus (Gtr.1)
D|------------------------------------------------------------------------|
A|------------------------------------------------------------------------|
F|-10-9-7-10-9-7--9-7-5-9-7-5--5--7--9--7--10-9-7-10-9-7--12-10-9-12-10-9-|
C|------------------------------------------------------------------------|
G|------------------------------------------------------------------------|
C|------------------------------------------------------------------------|

Chorus (Gtr.1) (Con't)
D|-------------|
A|-------------|
F|--5--7--9--7-|
C|-------------|
G|-------------|
C|-------------|

Chorus Gtr.2
D|----------------------|
A|----------------------|
F|----------------------|
C|-0---3---7---3--0-3-2-|
G|-0---3---7---3--0-3-2-|
C|-0---3---7---3--0-3-2-|
pm                . . .

Verse 2 (Both Guitars)
D|-------------------------------------|
A|-------------------------------------|
F|-------------------------------------|
C|-000-0-0-0--000-0-0-0--000-0-0-000-3-|
G|-000-0-0-0--000-0-0-0--000-0-0-000-3-|
C|-000-0-0-0--000-0-0-0--000-0-0-000-3-|
pm ... . . .  ... . . .  ... . . ...

Verse 3
D|-------------------------------------------|
A|-------------------------------------------|
F|-------------------------------------------|
C|-000-1/2-0-0--000-1/2-0-0--000-1/2-000-2/3-|
G|-000-1/2-0-0--000-1/2-0-0--000-1/2-000-2/3-|
C|-------------------------------------------|
pm ...     . .  ...     . .  ...     ...

Verse Fill 2
D|-------------------------------------------------|
A|-------------------------------------------------|
F|-------------------------------------------------|
C|-------------------------------------------------|
G|-2-2-2-3-3-5--2-2-2-3-3-5--2-2-2-3-3-5--2--2-3-0-|
C|-2-2-2-3-3-5--2-2-2-3-3-5--2-2-2-3-3-5--2--2-3-0-|
pm   . . . . .  . . . . . .  . . . . . .     . . .

Pre-Chorus 1
D|---------------------------------------------------------------------------------|
A|---------------------------------------------------------------------------------|
F|---------------------------------------------------------------------------------|
C|-7-7-7-7-5-5-5-5-3-3-3-3-7-7-7-7-5-5-5-5-3-3-3-3-5-5-5-5-3-3-3-3-2-2-2-2-5-5-5-5-|
G|---------------------------------------------------------------------------------|
C|---------------------------------------------------------------------------------|

Pre-Chorus 1 (Con't)
D|------------------------------------------------------------------|
A|------------------------------------------------------------------|
F|------------------------------------------------------------------|
C|-3-3-3-3-2-2-2-2--2-2-2-2-2-2-3-3-3-3-3-3-5-5-5-3-3-3-3-3-3-3-3-3-|
G|------------------------------------------------------------------|
C|------------------------------------------------------------------|

Pre-Chorus 2
D|-----------------------------------------------------------------------------|
A|-----------------------------------------------------------------------------|
F|-----------------------------------------------------------------------------|
C|-7-7-7-7-5-5-5-5-3-3-3-3-7-7-7-7-5-5-5-5-3-3-3-3-10-10-10-10-7-7-7-7-5-5-5-5-|
G|-----------------------------------------------------------------------------|
C|-----------------------------------------------------------------------------|

Pre-Chorus 2 (Con't)
D|----------------------------------------------------------------------|
A|----------------------------------------------------------------------|
F|----------------------------------------------------------------------|
C|-10-10-10-10-7-7-7-7-5-5-5-5-2-2-2-2-2-2-3-3-3-3-3-3-5-5-3-3-3-3--12\-|
G|------------------------------------------------------------------12\-|
C|------------------------------------------------------------------12\-|

Chorus (Gtr.1)
D|------------------------------------------------------------------------|
A|------------------------------------------------------------------------|
F|-10-9-7-10-9-7--9-7-5-9-7-5--5--7--9--7--10-9-7-10-9-7--12-10-9-12-10-9-|
C|------------------------------------------------------------------------|
G|------------------------------------------------------------------------|
C|------------------------------------------------------------------------|

Chorus (Gtr.1) (Con't)
D|-------------|
A|-------------|
F|--5--7--9--7-|
C|-------------|
G|-------------|
C|-------------|

Chorus Gtr.2
D|----------------------|
A|----------------------|
F|----------------------|
C|-0---3---7---3--0-3-2-|
G|-0---3---7---3--0-3-2-|
C|-0---3---7---3--0-3-2-|
pm                . . .
 

Interlude 1 (Gtr.1)
D|-------------------------------------------------------------|
A|-------------------------------------------------------------|
F|-------------------------------------------------------------|
C|-------------------------------------------------------------|
G|-------------------------------------------------------0h3h5-|
C|-0-000-0-000-0-000-0-000-0-000-0-000-0-000-0-000-0h3h5-------|
pm   ...   ...   ...   ...   ...   ...   ...   ...

Interlude 2 (Both Guitars)
D|-------------------------------------------------------------|
A|-------------------------------------------------------------|
F|-------------------------------------------------------------|
C|-------------------------------------------------------------|
G|-------------------------0h3h5-------------------------3-----|
C|-0-000-0-000-0-000-0h3h5-------0-000-0-000-0-000-0h3h5---5h3-|
pm   ...   ...   ...               ...   ...   ...

Intderlude 3 (Both Guitars)
D|---------------------------------------|
A|---------------------------------------|
F|---------------------------------------|
C|---------------------------------------|
G|---------------------------------------|
C|-55555555-77777777-8888888888-10101010-| <-- 10's not 1's and 0's
pm ........ ........ .......... . . . .

Interlude 4 (Gtr.1)
D|--------------------------------------------------------------------------------|
A|--------------------------------------------------------------------------------|
F|--------------------------------------------------------------------------------|
C|--------------------------------------------------------------------------------|
G|-------5------------5----------3-7-3-------3-7-3----------5-8-5-------5-8-5-----|
C|-0-5-8---8-5--0-5-8---8-5--5-7-------7-5-7-------5-7--7-8-------8-7-8-------8-7-|
pm . . .   . .  . . .   . .  . . .   . . . . .   . . .  . . .   . . . . .   . . .

Interlude 4 (Gtr.1) (Con't)
D|--------------------------------|
A|--------------------------------|
F|--------------------------------|
C|-------------------------7------|
G|-------5-8-5-----------7---7----|
C|-8-7-8-------8-7--8-10-------10-|
pm . . . .   . . .  . .  .   . .

Interlude 4 (Gtr.2) (Let notes ring)
D|------------------------|
A|------------------------|
F|------------------------|
C|------------------------|
G|------------------------|
C|-5~----7~----8~------10-|

Pre-Chorus 1
D|---------------------------------------------------------------------------------|
A|---------------------------------------------------------------------------------|
F|---------------------------------------------------------------------------------|
C|-7-7-7-7-5-5-5-5-3-3-3-3-7-7-7-7-5-5-5-5-3-3-3-3-5-5-5-5-3-3-3-3-2-2-2-2-5-5-5-5-|
G|---------------------------------------------------------------------------------|
C|---------------------------------------------------------------------------------|

Pre-Chorus 1 (Con't)
D|------------------------------------------------------------------|
A|------------------------------------------------------------------|
F|------------------------------------------------------------------|
C|-3-3-3-3-2-2-2-2--2-2-2-2-2-2-3-3-3-3-3-3-5-5-5-3-3-3-3-3-3-3-3-3-|
G|------------------------------------------------------------------|
C|------------------------------------------------------------------|

Pre-Chorus 2
D|-----------------------------------------------------------------------------|
A|-----------------------------------------------------------------------------|
F|-----------------------------------------------------------------------------|
C|-7-7-7-7-5-5-5-5-3-3-3-3-7-7-7-7-5-5-5-5-3-3-3-3-10-10-10-10-7-7-7-7-5-5-5-5-|
G|-----------------------------------------------------------------------------|
C|-----------------------------------------------------------------------------|

Pre-Chorus 2 (Con't)
D|----------------------------------------------------------------------|
A|----------------------------------------------------------------------|
F|----------------------------------------------------------------------|
C|-10-10-10-10-7-7-7-7-5-5-5-5-2-2-2-2-2-2-3-3-3-3-3-3-5-5-3-3-3-3--12\-|
G|------------------------------------------------------------------12\-|
C|------------------------------------------------------------------12\-|

Chorus (Gtr.1)
D|------------------------------------------------------------------------|
A|------------------------------------------------------------------------|
F|-10-9-7-10-9-7--9-7-5-9-7-5--5--7--9--7--10-9-7-10-9-7--12-10-9-12-10-9-|
C|------------------------------------------------------------------------|
G|------------------------------------------------------------------------|
C|------------------------------------------------------------------------|

Chorus (Gtr.1) (Con't)
D|-------------|
A|-------------|
F|--5--7--9--7-|
C|-------------|
G|-------------|
C|-------------|

Chorus Gtr.2
D|----------------------|
A|----------------------|
F|----------------------|
C|-0---3---7---3--0-3-2-|
G|-0---3---7---3--0-3-2-|
C|-0---3---7---3--0-3-2-|
pm                . . .

End On (Gtr.1)
D|-----|
A|-----|
F|-10~-|
C|-----|
G|-----|
C|-----|

End On (Gtr.2)
D|----|
A|----|
F|----|
C|-0~-|
G|-0~-|
C|-0~-|
Suggest correction
comments
print report bad tab
7 comments total. Showing first comments.
0 reply
prs-player128 15 Sep 01, 2005 08:00 PM

i think the chorus is a bit off dude but overall good tab man

0 reply
dimebag7 387 Feb 05, 2006 07:17 AM

yeah nuice

0 reply
dicer4 325 Mar 25, 2006 12:16 PM

this is pretty good, buti just subbmited a bid farewell tab, so if you people are looking to play this song properly than i suggest that you give my tab a read!!


rock on people
DELIVERANCE IS GIVING TO YOU!!!!!!!!!

guest
You may want to rate the tab now too:
select rating
Wanna post a correction for this tab? Suggest correction