Oops, an error
Loading. Please wait.

Always Tab

version 1
version 1

Whole song

Interactive

20,075 views 15 this week
1 commentread comment
1 2 3 4 5
x 9
add to favorites
launch autoscroll
font size
0
reset
how to read this tab
guitar tuner
Autoscroll
slow
fast
+/-
esc
set tempo
stop
Help us to improve Ultimate-Guitar.com Take our survey!
×
Author
Tuning
D G C F A D
KILLSWITCH ENGAGE
ALWAYS
Tuning: D-G-C-F-A-D

TABBED BY andherembrace
D|---------------------------------------------------------------|
A|---------------------------------------------------------------|
F|--9------------------------------------------------------------|
C|--9------------------------------------------------------------|
G|--7------------------------------------------------------------|
D|--7------------------------------------------------------------|

D|---------------------------------------------------------------|
A|---------------------------------------------------------------|
F|--9------------------------------------------------------------|
C|--9--------------------------(-9-)-----------------------------|
G|--7--------------------------(-7-)-----------------------\-----|
D|--7--------------------------(-7-)-----------------------\-----|

  0:22
D|------------------------------------------------------------------|
A|------------------------------------------------------------------|
F|------------------------------------------------------------------|
C|------------------------------------------------------------------|
G|3----------------------3---5---2---------2--------------2---5---5-|
D|1-1-1-1-1-1-1-1111-1-1-1-1-3-3-0-0-0-0-0-0-0-0-0000-0-0-0-0-3-3-3-|
  * * * * * * **** * *   *   *   * * * *   * * **** * *   *   *

D|-------------------------------------------------------------------|
A|-------------------------------------------------------------------|
F|-------------------------------------------------------------------|
C|-------------------------------------------------------------------|
G|---------3--------------3---5---2---------2--------------2---5---5-|
D|-1-1-1-1-1-1-1-1111-1-1-1-1-3-3-0-0-0-0-0-0-0-0-0000-0-0-0-0-3-3-3-|
 * * * *   * * **** * *   *   *   * * * *   * * **** * *   *   *

D|-------------------------------------------------------------------|
A|-------------------------------------------------------------------|
F|-------------------------------------------------------------------|
C|-------------------------------------------------------------------|
G|---------3--------------3---5---2---------2--------------2---5---5-|
D|-1-1-1-1-1-1-1-1111-1-1-1-1-3-3-0-0-0-0-0-0-0-0-0000-0-0-0-0-3-3-3-|
 * * * *   * * **** * *   *   *   * * * *   * * **** * *   *   *

D|--------------------------------------------------------------------|
A|--------------------------------------------------------------------|
F|--------------------------------------------------------------------|
C|--------------------------------------------------------------------|
G|---------3--------------3---5---2---------2------------5-5-5-5-5-5--|
D|-1-1-1-1-1-1-1-1111-1-1-1-1-3-3-0-0-0-0-0-0-0-0-0003-3-3-3-3-3-3-3--|
 * * * *   * * **** * *   *   *   * * * *   * * **** *

0:56

  1
D|10----------10----------8---------8---------7-------7-------8-------7------|
A|---10----10----10----10---10---10---10---10---8---8---8---8---8---8---8---8|
F|------10----------10---------9---------9--------7-------7-------7-------7--|
C|---------------------------------------------------------------------------|
G|---------------------------------------------------------------------------|
D|---------------------------------------------------------------------------|

  2
D|---------------------------------------------------------------------------|
A|-///------------------------------------------///--------------------------|
F|-14-------------------------------------------12---------------------------|
C|---------------------------------------------------------------------------|
G|---------------------------------------------------------------------------|
D|---------------------------------------------------------------------------|

  RYTHM(JUST SHOWING THE PROGRESSION,HARD TO MAKE OUT  THE STRUMMING PATTERN
  *LAST NOTES COULD POSSIBLY BE JUST THE BASS, BUT I JUST THREW THEM IN THERE)
D|---------------------------------------------------------------------------|
A|---------------------------------------------------------------------------|
F|------------------------------------------------------------------_--------|
C|-7---------------------------------------------------------------/ \-------|
G|-5-------------------------7------------------5-----------------2-3-2------|
D|-5-------------------------5------------------3-----------------------5-3--|

  1
D|10----------10----------8---------8---------7-------7-------8-------7------|
A|---10----10----10----10---10---10---10---10---8---8---8---8---8---8---8---8|
F|------10----------10---------9---------9--------7-------7-------7-------7--|
C|---------------------------------------------------------------------------|
G|---------------------------------------------------------------------------|
D|---------------------------------------------------------------------------|

  2
D|---------------------------------------------------------------------------|
A|-///------------------------------------------///--------------------------|
F|-14-------------------------------------------12---------------------------|
C|---------------------------------------------------------------------------|
G|---------------------------------------------------------------------------|
D|---------------------------------------------------------------------------|

  RYTHM(JUST SHOWING THE PROGRESSION,HARD TO MAKE OUT  THE STRUMMING PATTERN
  *LAST NOTES COULD POSSIBLY BE JUST THE BASS, BUT I JUST THREW THEM IN THERE)
D|---------------------------------------------------------------------------|
A|---------------------------------------------------------------------------|
F|------------------------------------------------------------------_--------|
C|-7---------------------------------------------------------------/ \-------|
G|-5-------------------------7------------------5-----------------2-3-2------|
D|-5-------------------------5------------------3-----------------------5-3--|

  1
D|10----------10----------8---------8---------7-------7-------8-------7------|
A|---10----10----10----10---10---10---10---10---8---8---8---8---8---8---8---8|
F|------10----------10---------9---------9--------7-------7-------7-------7--|
C|---------------------------------------------------------------------------|
G|---------------------------------------------------------------------------|
D|---------------------------------------------------------------------------|

  2
D|---------------------------------------------------------------------------|
A|-///------------------------------------------///--------------------------|
F|-14-------------------------------------------12---------------------------|
C|---------------------------------------------------------------------------|
G|---------------------------------------------------------------------------|
D|---------------------------------------------------------------------------|

  RYTHM(JUST SHOWING THE PROGRESSION,HARD TO MAKE OUT  THE STRUMMING PATTERN
  *LAST NOTES COULD POSSIBLY BE JUST THE BASS, BUT I JUST THREW THEM IN THERE)
D|---------------------------------------------------------------------------|
A|---------------------------------------------------------------------------|
F|------------------------------------------------------------------_--------|
C|-7---------------------------------------------------------------/ \-------|
G|-5-------------------------7------------------5-----------------2-3-2------|
D|-5-------------------------5------------------3-----------------------5-3--|

  1
D|10----------10----------8---------8---------7-------7-------8-------7------|
A|---10----10----10----10---10---10---10---10---8---8---8---8---8---8---8---8|
F|------10----------10---------9---------9--------7-------7-------7-------7--|
C|---------------------------------------------------------------------------|
G|---------------------------------------------------------------------------|
D|---------------------------------------------------------------------------|

  2
D|---------------------------------------------------------------------------|
A|-///------------------------------------------///--------------------------|
F|-14-------------------------------------------12---------------------------|
C|---------------------------------------------------------------------------|
G|---------------------------------------------------------------------------|
D|---------------------------------------------------------------------------|

  3 RYTHM(JUST SHOWING THE PROGRESSION,HARD TO MAKE OUT  THE STRUMMING PATTERN
  *LAST NOTES COULD POSSIBLY BE JUST THE BASS, BUT I JUST THREW THEM IN THERE)
D|---------------------------------------------------------------------------|
A|---------------------------------------------------------------------------|
F|---------------------------------------------------------------------------|
C|-7-------------------------------------------------------------------------|
G|-5-------------------------7------------------5----------------------------|
D|-5-------------------------5------------------3----------------------------|

  1:29
  1
D|-------------------------------------------------------------------|
A|-------------------------------------------------------------------|
F|-------------------------------------------------------------------|
C|-------------------------------------------------------------------|
G|3----------------------3---5---2---------2--------------2---5---5--|
D|1-1-1-1-1-1-1-1111-1-1-1-1-3-3-0-0-0-0-0-0-0-0-0000-0-0-0-0-3-3-3--|
  * * * * * * **** * *   *   *   * * * *   * * **** * *   *   *
2
-5-------5-------5-------7-------7-------7-------7-------7-------|
---6---6---6---6---6---6---6---6---6---6---6---6---6---6---6---6-|
-----5-------5-------5-------5-------5-------5-------5-------5---|
-----------------------------------------------------------------|
-----------------------------------------------------------------|
-----------------------------------------------------------------|

  1
D|--------------------------------------------------------------------|
A|--------------------------------------------------------------------|
F|--------------------------------------------------------------------|
C|--------------------------------------------------------------------|
G|---------3--------------3---5---2---------2--------------2---5---5--|
D|-1-1-1-1-1-1-1-1111-1-1-1-1-3-3-0-0-0-0-0-0-0-0-0000-0-0-0-0-3-3-3--|
 * * * *   * * **** * *   *   *   * * * *   * * **** * *   *   *

  2
D|-5-------5-------5-------7-------7-------7-------7-------7-------|
A|---6---6---6---6---6---6---6---6---6---6---6---6---6---6---6---6-|
F|-----5-------5-------5-------5-------5-------5-------5-------5---|
C|-----------------------------------------------------------------|
G|-----------------------------------------------------------------|
D|-----------------------------------------------------------------|

  1
D|--------------------------------------------------------------------|
A|--------------------------------------------------------------------|
F|--------------------------------------------------------------------|
C|--------------------------------------------------------------------|
G|---------3--------------3---5---2---------2--------------2---5---5--|
D|-1-1-1-1-1-1-1-1111-1-1-1-1-3-3-0-0-0-0-0-0-0-0-0000-0-0-0-0-3-3-3--|
 * * * *   * * **** * *   *   *   * * * *   * * **** * *   *   *

  2
D|-5-------5-------5-------7-------7-------7-------7-------7-------|
A|---6---6---6---6---6---6---6---6---6---6---6---6---6---6---6---6-|
F|-----5-------5-------5-------5-------5-------5-------5-------5---|
C|-----------------------------------------------------------------|
G|-----------------------------------------------------------------|
D|-----------------------------------------------------------------|

  1
D|--------------------------------------------------------------------|
A|--------------------------------------------------------------------|
F|--------------------------------------------------------------------|
C|--------------------------------------------------------------------|
G|---------3--------------3---5---2---------2------------5-5-5-5-5-5--|
D|-1-1-1-1-1-1-1-1111-1-1-1-1-3-3-0-0-0-0-0-0-0-0-0003-3-3-3-3-3-3-3--|
 * * * *   * * **** * *   *   *   * * * *   * * **** *

  2
D|-5-------5-------5-------7-------7-------7-------7-------7-------|
A|---6---6---6---6---6---6---6---6---6---6---6---6---6---6---6---6-|
F|-----5-------5-------5-------5-------5-------5-------5-------5---|
C|-----------------------------------------------------------------|
G|-----------------------------------------------------------------|
D|-----------------------------------------------------------------|

  2:02
  1
D|10----------10----------8---------8---------7-------7-------8-------7------|
A|---10----10----10----10---10---10---10---10---8---8---8---8---8---8---8---8|
F|------10----------10---------9---------9--------7-------7-------7-------7--|
C|---------------------------------------------------------------------------|
G|---------------------------------------------------------------------------|
D|---------------------------------------------------------------------------|

  2
D|---------------------------------------------------------------------------|
A|-///------------------------------------------///--------------------------|
F|-14-------------------------------------------12---------------------------|
C|---------------------------------------------------------------------------|
G|---------------------------------------------------------------------------|
D|---------------------------------------------------------------------------|

  RYTHM(JUST SHOWING THE PROGRESSION,HARD TO MAKE OUT  THE STRUMMING PATTERN
  *LAST NOTES COULD POSSIBLY BE JUST THE BASS, BUT I JUST THREW THEM IN THERE)
D|---------------------------------------------------------------------------|
A|---------------------------------------------------------------------------|
F|------------------------------------------------------------------_--------|
C|-7---------------------------------------------------------------/ \-------|
G|-5-------------------------7------------------5-----------------2-3-2------|
D|-5-------------------------5------------------3-----------------------5-3--|

  1
D|10----------10----------8---------8---------7-------7-------8-------7------|
A|---10----10----10----10---10---10---10---10---8---8---8---8---8---8---8---8|
F|------10----------10---------9---------9--------7-------7-------7-------7--|
C|---------------------------------------------------------------------------|
G|---------------------------------------------------------------------------|
D|---------------------------------------------------------------------------|

  2
D|---------------------------------------------------------------------------|
A|-///------------------------------------------///--------------------------|
F|-14-------------------------------------------12---------------------------|
C|---------------------------------------------------------------------------|
G|---------------------------------------------------------------------------|
D|---------------------------------------------------------------------------|

  RYTHM(JUST SHOWING THE PROGRESSION,HARD TO MAKE OUT  THE STRUMMING PATTERN
  *LAST NOTES COULD POSSIBLY BE JUST THE BASS, BUT I JUST THREW THEM IN THERE)
D|---------------------------------------------------------------------------|
A|---------------------------------------------------------------------------|
F|------------------------------------------------------------------_--------|
C|-7---------------------------------------------------------------/ \-------|
G|-5-------------------------7------------------5-----------------2-3-2------|
D|-5-------------------------5------------------3-----------------------5-3--|

  1
D|10----------10----------8---------8---------7-------7-------8-------7------|
A|---10----10----10----10---10---10---10---10---8---8---8---8---8---8---8---8|
F|------10----------10---------9---------9--------7-------7-------7-------7--|
C|---------------------------------------------------------------------------|
G|---------------------------------------------------------------------------|
D|---------------------------------------------------------------------------|

  2
D|---------------------------------------------------------------------------|
A|-///------------------------------------------///--------------------------|
F|-14-------------------------------------------12---------------------------|
C|---------------------------------------------------------------------------|
G|---------------------------------------------------------------------------|
D|---------------------------------------------------------------------------|

  3 RYTHM(JUST SHOWING THE PROGRESSION,HARD TO MAKE OUT  THE STRUMMING PATTERN
  *LAST NOTES COULD POSSIBLY BE JUST THE BASS, BUT I JUST THREW THEM IN THERE)
D|---------------------------------------------------------------------------|
A|---------------------------------------------------------------------------|
F|---------------------------------------------------------------------------|
C|-7-------------------------------------------------------------------------|
G|-5-------------------------7------------------3----------------------------|
D|-5-------------------------5------------------1----------------------------|

  1
D|10----------10----------8---------8---------7-------7-------8-------7------|
A|---10----10----10----10---10---10---10---10---8---8---8---8---8---8---8---8|
F|------10----------10---------9---------9--------7-------7-------7-------7--|
C|---------------------------------------------------------------------------|
G|---------------------------------------------------------------------------|
D|---------------------------------------------------------------------------|

  2
D|---------------------------------------------------------------------------|
A|-///------------------------------------------///--------------------------|
F|-14-------------------------------------------12---------------------------|
C|---------------------------------------------------------------------------|
G|---------------------------------------------------------------------------|
D|---------------------------------------------------------------------------|

  3
D|---------------------------------------------------------------------------|
A|---------------------------------------------------------------------------|
F|---------------------------------------------------------------------------|
C|-7-------------------------------------------------------------------------|
G|-5-------------------------7------------------5----------------------------|
D|-5-------------------------5------------------3----------------------------|

  2:36
D|----------------------------------------------------|
A|----------------------------------------------------|
F|----------------------------------------------------|
C|---9--7-------------------5-------------------------|
G|---7--5---8--7---5-6-5-1--3---6---5---3--2-3-5-3-2--|
D|--/7--5--/6--5---3-4-3-1-/3--/4---3---1--0-1-3-1-0--|
                 * * * *                 * * * * *

D|----------------------------------------------------|
A|----------------------------------------------------|
F|----------------------------------------------------|
C|---9--7-------------------5-------------------------|
G|---7--5---8--7---5-6-5-1--3---6---5---3--2-3-5-3-2--|
D|--/7--5--/6--5---3-4-3-1-/3--/4---3---1--0-1-3-1-0--|
                 * * * *                 * * * * *

D|----------------------------------------------------|
A|----------------------------------------------------|
F|----------------------------------------------------|
C|---9--7-------------------5-------------------------|
G|---7--5---8--7---5-6-5-1--3---6---5---3--2-3-5-3-2--|
D|--/7--5--/6--5---3-4-3-1-/3--/4---3---1--0-1-3-1-0--|
                 * * * *                 * * * * *

D|----------------------------------------------------|
A|----------------------------------------------------|
F|----------------------------------------------------|
C|---9--7-------------------5-------------------------|
G|---7--5---8--7---5-6-5-1--3---6---5---3--2-5-5-5-5--|
D|--/7--5--/6--5---3-4-3-1-/3--/4---3---1--0-3-3-3-3--|
                 * * * *                 *   * * *

  3:10
  1
D|10----------10----------8---------8---------7-------7-------8-------7------|
A|---10----10----10----10---10---10---10---10---8---8---8---8---8---8---8---8|
F|------10----------10---------9---------9--------7-------7-------7-------7--|
C|---------------------------------------------------------------------------|
G|---------------------------------------------------------------------------|
D|---------------------------------------------------------------------------|

  2
D|--------------------------------------------------------------------|
A|-6---6---6---6---5---5---10---10---8---8---8---8---8---8---8---8----|
F|---5---5---5---5---5---5----9----9---7---7---7---7---7---7---7---7--|
C|--------------------------------------------------------------------|
G|--------------------------------------------------------------------|
D|--------------------------------------------------------------------|
 * * * * * * * * * * * *  * *  * * * * * * * * * * * * * * * * * *

  1
D|10----------10----------8---------8---------7-------7-------8-------|
A|---10----10----10----10---10---10---10---10---8---8---8---8---8---8-|
F|------10----------10---------9---------9--------7-------7-------7---|
C|--------------------------------------------------------------------|
G|--------------------------------------------------------------------|
D|--------------------------------------------------------------------|

  2
D|--------------------------------------------------------------------|
A|-6---6---6---6---5---5---10---10---8---8---8---8---8---8------------|
F|---5---5---5---5---5---5----9----9---7---7---7---7---7---7----------|
C|---------------------------------------------------------------p----|
G|---------------------------------------------------------------s----|
D|----------------------------------------------------------------\---|
 * * * * * * * * * * * *  * *  * * * * * * * * * * * * * *

  1
D|10----------10----------8---------8---------7-------7-------8-------7------|
A|---10----10----10----10---10---10---10---10---8---8---8---8---8---8---8---8|
F|------10----------10---------9---------9--------7-------7-------7-------7--|
C|---------------------------------------------------------------------------|
G|---------------------------------------------------------------------------|
D|---------------------------------------------------------------------------|

  2
D|---------------------------------------------------------------------------|
A|-///------------------------------------------///--------------------------|
F|-14-------------------------------------------12---------------------------|
C|---------------------------------------------------------------------------|
G|---------------------------------------------------------------------------|
D|---------------------------------------------------------------------------|

  3 RYTHM(JUST SHOWING THE PROGRESSION,HARD TO MAKE OUT  THE STRUMMING PATTERN
  *LAST NOTES COULD POSSIBLY BE JUST THE BASS, BUT I JUST THREW THEM IN THERE)
D|---------------------------------------------------------------------------|
A|---------------------------------------------------------------------------|
F|------------------------------------------------------------------_--------|
C|-7---------------------------------------------------------------/ \-------|
G|-5-------------------------7------------------5-----------------2-3-2------|
D|-5-------------------------5------------------3-----------------------5-3--|

  1
D|10----------10----------8---------8---------7-------7-------8-------7------|
A|---10----10----10----10---10---10---10---10---8---8---8---8---8---8---8---8|
F|------10----------10---------9---------9--------7-------7-------7-------7--|
C|---------------------------------------------------------------------------|
G|---------------------------------------------------------------------------|
D|---------------------------------------------------------------------------|

  2
D|---------------------------------------------------------------------------|
A|-///------------------------------------------///--------------------------|
F|-14-------------------------------------------12---------------------------|
C|---------------------------------------------------------------------------|
G|---------------------------------------------------------------------------|
D|---------------------------------------------------------------------------|

  3
  3 RYTHM(JUST SHOWING THE PROGRESSION,HARD TO MAKE OUT  THE STRUMMING PATTERN
  *LAST NOTES COULD POSSIBLY BE JUST THE BASS, BUT I JUST THREW THEM IN THERE)
D|---------------------------------------------------------------------------|
A|---------------------------------------------------------------------------|
F|---------------------------------------------------------------------------|
C|-7-------------------------------------------------------------------------|
G|-5-------------------------7------------------5--------------------\-------|
D|-5-------------------------5------------------3--------------------\-------|

  1
D|10----------10----------8---------8---------7-------7-------8-------7------|
A|---10----10----10----10---10---10---10---10---8---8---8---8---8---8---8---8|
F|------10----------10---------9---------9--------7-------7-------7-------7--|
C|---------------------------------------------------------------------------|
G|---------------------------------------------------------------------------|
D|---------------------------------------------------------------------------|

  2
D|---------------------------------------------------------------------------|
A|-///------------------------------------------///--------------------------|
F|-14-------------------------------------------12---------------------------|
C|---------------------------------------------------------------------------|
G|---------------------------------------------------------------------------|
D|---------------------------------------------------------------------------|

  3
D|---------------------------------------------------------------------------|
A|---------------------------------------------------------------------------|
F|---------------------------------------------------------------------------|
C|-7--------7---------7--------7--------5--------5--------5--------5---------|
G|-5--5-5-5-5--5-5-5--7--7-7-7-7--7-7-7-5--5-5-5-5--5-5-5-5--5-5-5-5--5-5-5--|
D|-5--5-5-5-5--5-5-5--5--5-5-5-5--5-5-5-3--3-3-3-3--3-3-3-3--3-3-3-3--3-3-3--|
    * * *    * * *     * * *    * * *    * * *    * * *    * * *    * * *

  1
D|10----------10----------8---------8---------7-------7-------8-------7------|
A|---10----10----10----10---10---10---10---10---8---8---8---8---8---8---8---8|
F|------10----------10---------9---------9--------7-------7-------7-------7--|
C|---------------------------------------------------------------------------|
G|---------------------------------------------------------------------------|
D|---------------------------------------------------------------------------|

  2
D|---------------------------------------------------------------------------|
A|-///------------------------------------------///--------------------------|
F|-14-------------------------------------------12---------------------------|
C|---------------------------------------------------------------------------|
G|---------------------------------------------------------------------------|
D|---------------------------------------------------------------------------|

  3
D|---------------------------------------------------------------------------|
A|---------------------------------------------------------------------------|
F|---------------------------------------------------------------------------|
C|-7--------7---------7--------7--------5--------5--------5--------5---------|
G|-5--5-5-5-5--5-5-5--7--7-7-7-7--7-7-7-5--5-5-5-5--5-5-5-5--5-5-5-5--5-5-5--|
D|-5--5-5-5-5--5-5-5--5--5-5-5-5--5-5-5-3--3-3-3-3--3-3-3-3--3-3-3-3--3-3-3--|
    * * *    * * *     * * *    * * *    * * *    * * *    * * *    * * *

  4:00
  1
D|10----------10----------8---------8---------7-------7-------8-------7------|
A|---10----10----10----10---10---10---10---10---8---8---8---8---8---8---8---8|
F|------10----------10---------9---------9--------7-------7-------7-------7--|
C|---------------------------------------------------------------------------|
G|---------------------------------------------------------------------------|
D|---------------------------------------------------------------------------|

  2
D|--------------------------------------------------------------------|
A|-6---6---6---6---5---5---10---10---8---8---8---8---8---8---8---8----|
F|---5---5---5---5---5---5----9----9---7---7---7---7---7---7---7---7--|
C|--------------------------------------------------------------------|
G|--------------------------------------------------------------------|
D|--------------------------------------------------------------------|
 * * * * * * * * * * * *  * *  * * * * * * * * * * * * * * * * * *

  1
D|10----------10----------8---------8---------7-------7-------8-------7------|
A|---10----10----10----10---10---10---10---10---8---8---8---8---8---8---8---8|
F|------10----------10---------9---------9--------7-------7-------7-------7--|
C|---------------------------------------------------------------------------|
G|---------------------------------------------------------------------------|
D|---------------------------------------------------------------------------|

  2
D|--------------------------------------------------------------------|
A|-6---6---6---6---5---5---10---10---8---8---8---8---8---8---8---8----|
F|---5---5---5---5---5---5----9----9---7---7---7---7---7---7---7---7--|
C|--------------------------------------------------------------------|
G|--------------------------------------------------------------------|
D|--------------------------------------------------------------------|
 * * * * * * * * * * * *  * *  * * * * * * * * * * * * * * * * * *

  1
D|10----------10----------8---------8---------7-------7-------8-------7------|
A|---10----10----10----10---10---10---10---10---8---8---8---8---8---8---8---8|
F|------10----------10---------9---------9--------7-------7-------7-------7--|
C|---------------------------------------------------------------------------|
G|---------------------------------------------------------------------------|
D|---------------------------------------------------------------------------|

  2
D|--------------------------------------------------------------------|
A|-6---6---6---6---5---5---10---10---8---8---8---8---8---8---8---8----|
F|---5---5---5---5---5---5----9----9---7---7---7---7---7---7---7---7--|
C|--------------------------------------------------------------------|
G|--------------------------------------------------------------------|
D|--------------------------------------------------------------------|
 * * * * * * * * * * * *  * *  * * * * * * * * * * * * * * * * * *

  1
D|10----------10----------8---------8---------7-------7-------8-------7------|
A|---10----10----10----10---10---10---10---10---8---8---8---8---8---8---8---8|
F|------10----------10---------9---------9--------7-------7-------7-------7--|
C|---------------------------------------------------------------------------|
G|---------------------------------------------------------------------------|
D|---------------------------------------------------------------------------|

  2
D|--------------------------------------------------------------------|
A|-6---6---6---6---5---5---10---10---8---8---8---8---8---8---8---8----|
F|---5---5---5---5---5---5----9----9---7---7---7---7---7---7---7---7--|
C|--------------------------------------------------------------------|
G|--------------------------------------------------------------------|
D|--------------------------------------------------------------------|
 * * * * * * * * * * * *  * *  * * * * * * * * * * * * * * * * * *



************************************

| \  Slide down
| /  Slide up
| p  Pull-off

************************************
Suggest correction
comments
print report bad tab
1 comment total.
0 reply
P_Trik 5,753 May 01, 2013 11:56 AM

Love this song. Great work!!

guest
You may want to rate the tab now too:
select rating
Wanna post a correction for this tab? Suggest correction