Oops, an error
Loading. Please wait.

And Embers Rise Tab

version 1
version 1

Whole song

Interactive

7,515 views 3 this week
1 commentread comment
1 2 3 4 5
x 8
add to favorites
launch autoscroll
font size
0
reset
how to read this tab
guitar tuner
×
Best way to learn
"And Embers Rise"
Autoscroll
slow
fast
+/-
esc
set tempo
stop
Author
Tuning- DGCFAD

Just repeat these riffs as many times as needed.

Gtr.1
|-5-------5-------5-------5--------|
|---6---6---6---6---6---6---6---6--|
|-----7-------7-------7-------7---*|
|---------------------------------*|
|----------------------------------|
|----------------------------------|

Gtr.2
|---8--6--5---6—-5--3---5--3--0--1--3--5--|
|--10--8--6---8—-6--5---6--5--1--3--5--6--|
|-----------------------------------------|
|-----------------------------------------|
|-----------------------------------------|
|-----------------------------------------|

Gtr.2 (Con't)
|---8--6--5---6--5--3---5--6---8--10-10-10--|
|--10--8--6---8--6--5---6--8--10--11-11-11--|
|-------------------------------------------|
|-------------------------------------------|
|-------------------------------------------|
|-------------------------------------------|
Suggest correction
comments
print report bad tab
1 comment total.
0 reply
Cone 21 30 Oct 04, 2005 07:48 AM

its in drop C even though it makes no difference in the way you play the song

guest
You may want to rate the tab now too:
select rating
Wanna post a correction for this tab? Suggest correction