Oops, an error
Loading. Please wait.
We have an official Arms Of Sorrow tab made by UG professional guitarists. Check out the tab »
×
35,935 views 51 this week
15 commentsread comments
1 2 3 4 5
x 13
add to favorites
×
Save as Personal and add changes to this tab that will be seen only by you. Learn more ›
×
You can save this tab as Personal to edit and correct it or add notes. All changes will be seen only by you. Learn more »
launch autoscroll
font size
0
reset
how to read this tab
guitar tuner
edit
Autoscroll
slow
fast
+/-
esc
set tempo
stop
Author
Difficulty
Artist: Killswitch Engage
Song: The Arms of Sorrow
Album: As Daylight Dies
Tabbed by: Dru/3


Intro (Clean)
Guitar 1
D|------------------------------------------------------------------------|
A|----3------1-----3------3-------3------1----3~--------------------------|
F|--0--0-0-0--0-0-0-0-0-0--0-0--0--0-0-0--0-0-0~--------------------------|
C|-1-1--1-3-3--3-5-5-5-0-0--0--1-1--1-3-3--3--5~--------------------------|
G|------------------------------------------------------------------------|
C|------------------------------------------------------------------------|

Guitar 2 (Clean)
D|------------------------------------------------------------------------|
A|44444444-66666666-88888888-33333333-44444444-66666666-8~----------------|
F|33333333-55555555-77777777-22222222-33333333-55555555-7~----------------|
C|11111111-33333333-55555555-00000000-11111111-33333333-5~----------------|
G|------------------------------------------------------------------------|
C|------------------------------------------------------------------------|

Verse part 1(Distorted)
Guitar 1
D|------------------------------------------------------------------------|
A|------------------------------------------------------------------------|
F|5--5--5--5--5--5---5--5--5-----7~---10~---------------------------------|
C|3--3--3--3--3--3---3--3--3-------8~7~--8~7~-----------------------------|
G|----------------5/6-66-66-666-------------------------------------------|
C|-55-55-55-55-55---------------------------------------------------------|
   .. .. .. .. ..   . .. .. ...
                     x4

Guitar 2
D|------------------------------------------------------------------------|
A|------------------------------------------------------------------------|
F|------------------------------------------------------------------------|
C|--5~-1~--3~-------------------------------------------------------------|
G|--5~-1~--3~-------------------------------------------------------------|
C|--5~-1~--3~-------------------------------------------------------------|
       2x then Play same as Guitar 1

Verse part 2
Guitars 1 & 2
D|------------------------------------------------------------------------|
A|------------------------------------------------------------------------|
F|---8---8--8-------------------8---8--8----------------------------|
C|---x---x--x-0000-0-0000-0-----x---x--x-1-0-1-4-3-1----------------|
G|---6---6--6-0000-0-0000-0-----6---6--6-1-0-1-4-3-1----------------|
C|000-000-00--0000-0-0000-0--000-000-00--1-0-1-4-3-1----------------|
  ... ...  .. .... . .... .  ... ... ..    
                     2X
Then back to Verse part 1
do it 2 times

Chorus
Guitar 1
D|x\----------------------------------------------------------------------|
A|x\----------------------------------------------------------------------|
F|x\------------------------------7--7------------------------------------|
C|x\11111111--33333333--55555555--x--x------------------------------------|
G|x\11111111--33333333--55555555--5--5------------------------------------|
C|x\11111111--33333333--55555555---00-00----------------------------------|
                                   .. ..
                               2x
Guitar 2 (Not very loud on the CD but its definately there)

D|-----------------------|-----------13-----------------------------------|
A|--11-10--------11------|--13-11-10----11-10-----------------------------|
F|-------12-10-12--------|------------------------------------------------|
C|-----------------------|------------------------------------------------|
G|-----------------------|------------------------------------------------|
C|-----------------------|------------------------------------------------|
               3x
        Do Verse Part 2 again and then Verse Part 1
        Then repeat the Chorus

Bridge
Guitar 1
D|----------------------------|-------------------------------------------|
A|----------------------------|-------------------------------------------|
F|----------------------------|-------------------------------------------|
C|t7p0t3p0t7t7p0t3p0t7t7p0t3p0|t10p0t7p0t10t10p0t7p0t10t10p0t7p0----------|
G|----------------------------|-------------------------------------------|
C|----------------------------|-------------------------------------------|
                x2                              x2

D|----------------------------|-------------------------------------------|
A|----------------------------|-------------------------------------------|
F|----------------------------|-------------------------------------------|
C|t8p0t5p0t8t8p0t5p0t8t8p0t5p0|t7p0t3p0t7t7p0t3p0t7t7p0t3p0---------------|
G|----------------------------|-------------------------------------------|
C|----------------------------|-------------------------------------------|
                x2

D|----------------------------|-------------------------------------------|
A|----------------------------|-------------------------------------------|
F|----------------------------|-------------------------------------------|
C|t5p0t2p0t5t5p0t2p0t5t5p0t2p0|-------------------------------------------|
G|----------------------------|-------------------------------------------|
C|----------------------------|-------------------------------------------|

                      Do the whole thing twice
   (You dont have to tap the notes, it sounds just fine without the tapping)
Guitar 2
D|-----------|------------------------------------------------------------|
A|-----------|------------------------------------------------------------|
F|-----------|------------------------------------------------------------|
C|5~-1~-0~-7~|0000000-00000-00000-3333333-33333-33333-1111111-11111-11111-|
G|5~-1~-0~-7~|0000000-00000-00000-3333333-33333-33333-1111111-11111-11111-|
C|5~-1~-0~-7~|0000000-00000-00000-3333333-33333-33333-1111111-11111-11111-|
              ....... ..... ..... ....... ..... ..... ....... ..... .....
 Part way through 1st time          do all of 2nd time

Finish on
D|------------------------------------------------------------------------|
A|------------------------------------------------------------------------|
F|------------------------------------------------------------------------|
C|0000000-----------------------------------------------------------------|
G|0000000-----------------------------------------------------------------|
C|0000000-----------------------------------------------------------------|
  .......
                        Then repeat the Intro once

                     Then Repeat Chorus
While guitar 1 does the normal progression,
Guitar 2
D|----------------------------|-------------------------------------------|
A|----------------------------|-------------------------------------------|
F|----------------------------|-------------------------------------------|
C|t8p0t5p0t8t8p0t5p0t8t8p0t5p0|t7p0t3p0t7t7p0t3p0t7t7p0t3p0---------------|
G|----------------------------|-------------------------------------------|
C|----------------------------|-------------------------------------------|

                   Repeat and Fade Out

Key:

/ Slide up
\ Slide Down
h Hammer on
p Pull off
t Tap
X Mute Note
. Palm Mute

            
            
Suggest correction
Creating personal tab
Creating personal tab
You can edit any tab online and save it as your Personal.

You can edit, replace or remove any tab part or add personal notes – all changes will be seen only by you.

Personal tabs can be accessed anytime from any device, even offline.
Learn more »
comments
print report bad tab
15 comments total. Showing first comments.
0 reply
Sevendust rocks 61 Dec 13, 2006 02:53 AM

non accurate...very

0 reply
dizturbed 150 Dec 26, 2006 05:38 PM

bad

0 reply
Nanela1228 10 Jan 16, 2007 04:06 PM

this is an awesome tab...i dunno whats wrong with u douchefaces

guest
You may want to rate the tab now too:
select rating
Wanna post a correction for this tab? Suggest correction