Oops, an error
Loading. Please wait.
We have an official Arms Of Sorrow tab made by UG professional guitarists. Check out the tab »
×
3,758 views 3 this week
2 commentsread comments
1 2 3 4 5
1 last vote to show rating
add to favorites
×
Save as Personal and add changes to this tab that will be seen only by you. Learn more ›
×
You can save this tab as Personal to edit and correct it or add notes. All changes will be seen only by you. Learn more »
launch autoscroll
font size
0
reset
how to read this tab
guitar tuner
edit
Autoscroll
slow
fast
+/-
esc
set tempo
stop
Author
Difficulty
This is the first tab that I have done.  
I think that it's right, but will welcome any ideas. 
Need help with the lead.

Intro

Guitar 1  clean   * = let the note ring out 

         *              *
D||--------------|--------------|                 
A||--------------|--------------|                  
F||------7-------|------5-------|                  
C||---5-----5-5--|---3-----3-3--|                 
G||--6-6---6-6---|--3-3---3-3---|                 
C||--------------|--------------|                  
   
                                                
           *            
D||-------------------|-------------|
A||-------------------|-------------|
F||--------7----------|-------------|
C||----8-------8--10--|---7-7--7-7--|
G||--10-10---10-10----|--8-8--8-8---|
C||-------------------|-------------|


         *              *
D||--------------|--------------|
A||--------------|--------------|
F||------7-------|------5-------|
C||---5-----5-5--|---7-----7-7--|
G||--6-6---6-6---|--8-8---8-8---|
C||--------------|--------------|

Guitar 2  clean lightly strumed

                   
D||-------------------|-------------------|
A||-------------------|-------------------|
F||--7-7-7-7-7-7-7-7--|--5-5-5-5-5-5-5-5--|
C||--5-5-5-5-5-5-5-5--|--3-3-3-3-3-3-3-3--|
G||--6-6-6-6-6-6-6-6--|--3-3-3-3-3-3-3-3--|
C||-------------------|-------------------|


D||---------------------------|-------------------|
A||---------------------------|-------------------|
F||---7--7--7--7--7--7--7--7--|--7-7-7-7-7-7-7-7--|
C||---8--8--8--8--8--8--5--8--|--7-7-7-7-7-7-7-7--|
G||--10-10-10-10-10-10-10-10--|--8-8-8-8-8-8-8-8--|
C||---------------------------|-------------------|


D||-------------------|-------------------|---------|
A||-------------------|-------------------|---------|
F||--7-7-7-7-7-7-7-7--|--5-5-5-5-5-5-5-5--|----(7)--|
C||--5-5-5-5-5-5-5-5--|--7-7-7-7-7-7-7-7--|----(8)--|
G||--6-6-6-6-6-6-6-6--|--8-8-8-8-8-8-8-8--|---(10)--|
C||-------------------|-------------------|---------|



   
     Imprisoned, inside this mind
D||---------------------|------------------------------| 
A||---------------------|----------------------7-------|
F||--7--7--7--7--7--7/--|--/5--5--5----------7---------|
C||--5--5--5--5--5--5/--|--/7--7--7--------8-----8-----|
G||--6666666666666666/--|--/888888888---10---------10--|
C||---------------------|------------------------------| Repeat 4x
      xx xx xx xx xx         xx xx xx 




    Running, always running
D||---------------------|---------------|-----------------|-------------|
A||---------------------|---------------|-----------------|-------------|
F||---------------------|---------------|-----------------|-------------|
C||--000---000---000----|--000-0-000-0--|-000---000---000-|-5-00-10-7-5-|
G||--000-5-000-5-000-5--|--000-0-000-0--|-000-5-000-5-000-|-5-00-10-7-5-|
C||--000---000---000----|--000-0-000-0--|-000---000---000-|-5-00-10-7-5-|
     xxx ^ xxx ^ xxx ^     xxx x xxx x    xxx ^ xxx ^ xxx     xx 
                     

     Stop me before I bleed
D||---------------------|---------------|-------------------|-----------|
A||---------------------|---------------|-------------------|-----------|
F||---------------------|---------------|-------------------|-----------|
C||--000---000---000----|--000-0-000-0--|--000---000---000--|--5-00-10--|
G||--000-5-000-5-000-5--|--000-0-000-0--|--000-5-000-5-000--|--5-00-10--|
C||--000---000---000----|--000-0-000-0--|--000---000---000--|--5-00-10--| 
     xxx ^ xxx ^ xxx ^     xxx x xxx x     xxx ^ xxx ^ xxx       xx  !
                     

     The echos of my voice        The shadows I cast
D||-----------------------------|-------------------------15---------|
A||---------------------7-------|---------------12----12------13-12--|
F||--5--5--5----------7---------|--5--5--5---------12----------------|
C||--7--7--7--------8-----8-----|--7--7--7---------------------------|
G||--888888888---10---------10--|--888888888-------------------------|
C||-----------------------------|------------------------------------|
      xx xx xx  play 3x             xx xx xx not sure about this part                       


   Deeper I'm falling....         Deeper decending
D||----------------------------|------------------------|
A||----------------------------|------------------------|
F||----------------------------|------------------------|
C||--1---3---5---1--00--1--00--|--1---3---5---00000000--|
G||--1---3---5---1--00--1--00--|--1---3---5---00000000--|
C||--1---3---5---1--00--1--00--|--1---3---5---00000000--|
                    xx     xx                 xxxxxxxx 

    
    Running, always running
D||---------------------|---------------|-----------------|-------------|
A||---------------------|---------------|-----------------|-------------|
F||---------------------|---------------|-----------------|-------------|
C||--000---000---000----|--000-0-000-0--|-000---000---000-|-5-00-10-7-5-|
G||--000-5-000-5-000-5--|--000-0-000-0--|-000-5-000-5-000-|-5-00-10-7-5-|
C||--000---000---000----|--000-0-000-0--|-000---000---000-|-5-00-10-7-5-|
     xxx ^ xxx ^ xxx ^     xxx x xxx x    xxx ^ xxx ^ xxx     xx 


     There must be 
D||---------------------|---------------|-------------------|-----------|
A||---------------------|---------------|-------------------|-----------|
F||---------------------|---------------|-------------------|-----------|
C||--000---000---000----|--000-0-000-0--|--000---000---000--|--5-00-10--|
G||--000-5-000-5-000-5--|--000-0-000-0--|--000-5-000-5-000--|--5-00-10--|
C||--000---000---000----|--000-0-000-0--|--000---000---000--|--5-00-10--| 
     xxx ^ xxx ^ xxx ^     xxx x xxx x     xxx ^ xxx ^ xxx       xx  !


     The echos of my voice        The shadows I cast
D||-----------------------------|-------------------------15---------|
A||---------------------7-------|---------------12----12------13-12--| 
F||--5--5--5----------7---------|--5--5--5---------12----------------|
C||--7--7--7--------8-----8-----|--7--7--7---------------------------|
G||--888888888---10---------10--|--888888888-------------------------|
C||-----------------------------|------------------------------------|
      xx xx xx  play 3x             xx xx xx Not to sure about this part                     



   Deeper I'm falling....      Deeper decending...
D||-------------------------|------------------------|
A||-------------------------|------------------------|
F||-------------------------|------------------------|
C||--1---3---5---1-00-1-00--|--1---3---5---00000000--|
G||--1---3---5---1-00-1-00--|--1---3---5---00000000--|
C||--1---3---5---1-00-1-00--|--1---3---5---00000000--|
                   xx   xx                 xxxxxxxx 




                   The demons               of my own design
D||--------------|-----------------------|-----------------------|
A||--------------|-----------------------|-----------------------|
F||--------------|-----------------------|-----------------------|
C||--5--1--0--7--|-----------------------|-----------------------|
G||--5--1--0--7--|--0000000--0000--0000--|--3333333--3333--3333--|
C||--5--1--0--7--|--0000000--0000--0000--|--3333333--3333--3333--|
                    xxxxxxx  xxxx  xxxx     xxxxxxx  xxxx  xxxx



     This horror must       not remain
D||-----------------------|---------|
A||-----------------------|---------|
F||-----------------------|---------|
C||-----------------------|---------|
G||--1111111--1111--1111--|--55555--|
C||--1111111--1111--1111--|--55555--| Not exact rythem, listen to the song
     xxxxxxx  xxxx  xxxx     xxxxx  





    Deeper I'm falling            into the           arms of sorrow

         *              *                *
D||------------|------------|----------------|-----------|                
A||------------|------------|----------------|-----------|               
F||-----7------|-----5------|-------7--------|-----------|                
C||--5-----5-5-|--3-----3-3-|---8-------8--8-|-1-00-1-00-|           
G||-6-6---6-6--|-3-3---3-3--|-10-10---10-10--|-1-00-1-00-|               
C||------------|------------|----------------|-1-00-1-00-|                      
                                                 xx   xx


    Deeper decending  
D||------------------------|--------------|
A||------------------------|--------------|
F||------------------------|--------------|
C||--1---3---5---00000000--|--------------|
G||--1---3---5---00000000--|--1--3--5--0--|
C||--1---3---5---00000000--|--1--3--5--0--|
                 xxxxxxxx 

Suggest correction
Creating personal tab
Creating personal tab
You can edit any tab online and save it as your Personal.

You can edit, replace or remove any tab part or add personal notes – all changes will be seen only by you.

Personal tabs can be accessed anytime from any device, even offline.
Learn more »
Give kudos to tab author, rate the tab!
1 2 3 4 5
comments
print report bad tab
2 comments total.
0 reply
fret13 1,031 Nov 06, 2007 11:44 AM

to be honest with you, and i havent played it yet but iknow or sure that the intro is the correct one here. idk why its only two stars but like i said ive only looked at the intro so far.

0 reply
IlDementis 31 Dec 11, 2009 10:48 PM

you've made the intro needlessly complicated (its a very easy intro), not to mention much of it is just wrong.

guest
You may want to rate the tab now too:
select rating
Wanna post a correction for this tab? Suggest correction