Oops, an error
Loading. Please wait.
We have an official Arms Of Sorrow tab made by UG professional guitarists. Check out the tab »
×
16,488 views 3 this week
3 commentsread comments
1 2 3 4 5
x 5
add to favorites
×
Save as Personal and add changes to this tab that will be seen only by you. Learn more ›
×
You can save this tab as Personal to edit and correct it or add notes. All changes will be seen only by you. Learn more »
launch autoscroll
font size
0
reset
how to read this tab
guitar tuner
edit
Autoscroll
slow
fast
+/-
esc
set tempo
stop
Author
Hey this is my first tab so i hope its alright, and i hope its better or makes more 
or fills in some empty spots better than the other tabs. any corrections, changes or 
let me know.


Intro - clean    0:00-0:17
D|---------------------------------------------------------very---| let
A|----3---------1-------3-------3-------3---------1----3--light---| chord
F|--0---0-0---0---0---0---0-0-0---0-0-0---0-0---0---0--0-strum on-| ring
C|-1-1-1-1-1/3-3-3-3/5-5-5-5-0-0-0-0-1-1-1-1-1/3-3-3-3-5---end----| a little
G|----------S-------S-------------------------S-----------chord---|
C|----------------------------------------------------------------|

Verse/Riff      0:17-0:32
D|---------------------------------------------------|    D|----------|
A|---------------------------------------------------|    A|----------|
F|-3--3--3--3--3--3------3--3--3--3--7------10-------|G1  F|-10-------|
C|-5--5--5--5--5--5--5-5-5--5--5--5-----8-7-----8-7--|    C|-----8-7--|
G|-------------------5/6--66-66-66-66----------------|    G|----------|
C|--55-55-55-55-55-55--------------------------------|    C|----------|
 |                                                   | 2x  |2nd ending|
D|---------------------------------------------------|    D|----------|
A|---------------------------------------------------|    A|----------|
F|---------------------------------------------------|G2  F|----------|
C|-5---------------------1----------(1)-----3--------|    C|--3----5\-|
G|-5---------------------1----------(1)-----3--------|    G|--3----5\-|
C|-5---------------------1----------(1)-----3--------|    C|--3----5\-|

Verse/Riff continued     0:33-0:48
D|---------------------------------------------------|
A|---------------------------------------------------|
F|-3--3--3--3--3--3------3--3--3--3--7------10-------|G1&2
C|-5--5--5--5--5--5--5-5-5--5--5--5-----8-7-----8-7--| x2
G|-------------------5/6--66-66-66-66----------------|
C|--55-55-55-55-55-55--------------------------------|

Riff 2 - both guitars 0:48-1:03
D|------------------------------------------------|
A|------------------------------------------------|
F|------------------------------------------------|
C|----8---8---8---------------8---8---------------|
G|----6---6---6000-0-000-0----6---6---1-0-1/4-3-1-|
C|-000-000-000-000-0-000-0-000-000-0001-0-1/4-3-1-|

D|------------------------------------------------|
A|------------------------------------------------|
F|------------------------------------------------|
C|----8---8---8---------------8---8---------------|
G|----6---6---6000-0-000-0----6---6---1-0-1/3-3-3-|
C|-000-000-000-000-0-000-0-000-000-0001-0-1/3-3-3-|

Riff 3 - both guitars x2  1:03-1:19
D|-----------------------------------------------------|
A|-----------------------------------------------------|
F|-3--3--3-----3-------0--0--0-----0-------------------|G1
C|-5--5--5-----5-------1--1--1-----1-------------------|
G|-----------------------------------------------------|
C|--55-55-55--5---------11-11-11--1--------------------|
 |                                                     |
D|-------------------------------------------13--------|
A|---------------------------------13--11-10-----11-10-|
F|-----------------------------------------------------|G2
C|-----------------------------------------------------|after second
G|-----------------------------------------------------|time only
C|-----------------------------------------------------|

Chorus x2     1:19-1:34
D|-------------------------------13--------|
A|-11--10-----------11-13--11-10-----11-10-|
F|--------12-10--12------------------------|G1
C|-----------------------------------------|
G|-----------------------------------------|
C|-----------------------------------------|
 |                                         |
D|-----------------------------------------|
A|-----------------------------------------|
F|-----------------------------------------|G2
C|--1-------------------3------------------|
G|--1-------------------3------------------|
C|--1-------------------3------------------|

D|-------------------------------13--------|
A|-11--10-----------11-13--11-10-----11-10-|
F|--------12-10--12------------------------|G1
C|-----------------------------------------|
G|-----------------------------------------|
C|-----------------------------------------|
 |                                         |      Second ending
D|-----------------------------------------|   |------------------|
A|-----------------------------------------|   |------------------|
F|----------------------7---------7--------|G2 |-7----------------|
C|--5-------------------x---------x--------|   |-x---0--0--8\\----|
G|--5-------------------5---------5--------|   |-5---0--0--8\\----|
C|--5-----------------------0--0------0--0-|   |-----0--0--8\\----|

Riff 2 - both guitars    1:34-1:49
D|------------------------------------------------|
A|------------------------------------------------|
F|------------------------------------------------|
C|----8---8---8---------------8---8---------------|
G|----6---6---6000-0-000-0----6---6---1-0-1/4-3-1-|
C|-000-000-000-000-0-000-0-000-000-0001-0-1/4-3-1-|

D|------------------------------------------------|
A|------------------------------------------------|
F|------------------------------------------------|
C|----8---8---8---------------8---8---------------|
G|----6---6---6000-0-000-0----6---6---1-0-1/3-3-3-|
C|-000-000-000-000-0-000-0-000-000-0001-0-1/4-4-4-|

Riff 3 - both guitars x2     1:50-2:05
D|------------------------------------------slide-from-|
A|----------------------------------------highest-fret-|
F|-3--3--3-----3-------0--0--0-----0-------all-the-way-|G1
C|-5--5--5-----5-------1--1--1-----1-----------down----|
G|--------------------------------------------\\\\\\\\-|
C|--55-55-55--5---------11-11-11--1-----------\\\\\\\\-|
 |                                                     |
D|-------------------------------------------13--------|
A|---------------------------------13--11-10-----11-10-|
F|-----------------------------------------------------|G2
C|-----------------------------------------------------|after second
G|-----------------------------------------------------|time only
C|-----------------------------------------------------|

Chorus x2     2:05-2:20
D|-------------------------------13--------|
A|-11--10-----------11-13--11-10-----11-10-|
F|--------12-10--12------------------------|G1
C|-----------------------------------------|
G|-----------------------------------------|
C|-----------------------------------------|
 |                                         |
D|-----------------------------------------|
A|-----------------------------------------|
F|-----------------------------------------|G2
C|--1-------------------3------------------|
G|--1-------------------3------------------|
C|--1-------------------3------------------|

D|-------------------------------13--------| |--------------------|
A|-11--10-----------11-13--11-10-----11-10-| |13------------------|
F|--------12-10--12------------------------| |--------------------|G1
C|-----------------------------------------| |--------------------|
G|-----------------------------------------| |---0-0-0-0-0-0-0-5\-|
C|-----------------------------------------| |---0-0-0-0-0-0-0-5\-|
 |                                         | |                    |
D|-----------------------------------------| |--------------------|
A|-----------------------------------------| |--------------------|
F|----------------------7---------7--------| |-7------------------|G2
C|--5-------------------x---------x--------| |-x------------------|
G|--5-------------------5---------5--------| |-5-0-0-0-0-0-0-0-5\-|
C|--5-----------------------0--0------0--0-| |---0-0-0-0-0-0-0-5\-|

Bridge/Solo thing   2:21-2:48
Guitar 1                      x2                                   x2
D|------------------------------|-----------------------------------|
A|------------------------------|-----------------------------------|
F|------------------------------|-----------------------------------|
C|-t7p0t3p0t7t7p0t3p0t7t7p0t3p0-|-t10p0t7p0t10t10p0t7p0t10t10p0t7p0-|
G|------------------------------|-----------------------------------|
C|------------------------------|-----------------------------------|
                              x2
D|------------------------------|-----------------------------------|
A|------------------------------|-----------------------------------|
F|------------------------------|-----------------------------------|
C|-t8p0t5p0t8t8p0t5p0t8t8p0t5p0-|-t7p0t3p0t7t7p0t3p0t7t7p0t3p0------|
G|------------------------------|-----------------------------------|
C|------------------------------|-----------------------------------|
                                                                  x2
D|------------------------------|-----------------------------------|
A|------------------------------|-----------------------------------|
F|------------------------------|-----------------------------------|
C|-t5p0t2p0t5t5p0t2p0t5t5p0t2p0-|-t7p0t3p0t7t7p0t3p0t7t7p0t3p0------|
G|------------------------------|-----------------------------------|
C|------------------------------|-----------------------------------|
                                   x2                             x2
D|-----------------------------------|------------------------------|
A|-----------------------------------|------------------------------|
F|-----------------------------------|------------------------------|
C|-t10p0t7p0t10t10p0t7p0t10t10p0t7p0-|-t8p0t5p0t8t8p0t5p0t8t8p0t5p0-|
G|-----------------------------------|------------------------------|
C|-----------------------------------|------------------------------|

Bridge/Solo thing enters at around 2:28-2:48
Guitar 2
D|-----------|------------------------------------------------------------|
A|-----------|------------------------------------------------------------|
F|-----------|------------------------------------------------------------|
C|5~-1~-0~-7~|0000000-00000-00000-3333333-33333-33333-1111111-11111-11111-|
G|5~-1~-0~-7~|0000000-00000-00000-3333333-33333-33333-1111111-11111-11111-|
C|5~-1~-0~-7~|0000000-00000-00000-3333333-33333-33333-1111111-11111-11111-|

Both guitars - right at 2:48
finish bridge/solo
thing on this       Intro/Interlude thing   2:52-2:59
D|---------|        D|----------------------------------------------|
A|---------|        A|----3---------1----3--------------------------|
F|---------|        F|--0---0-0---0---0--0-------7---------7--------|
C|-0000000-|        C|-1-1-1-1-1/3-3-3-3-5-------x---------x--------|
G|-0000000-|        G|---------------------------5---------5--------|
C|-0000000-|        C|-------------------------------0--0------0--0-|

Chorus 2:59-3:06
D|-------------------------------13--------|
A|-11--10-----------11-13--11-10-----11-10-|
F|--------12-10--12------------------------|G1
C|-----------------------------------------|
G|-----------------------------------------|
C|-----------------------------------------|
 |                                         |
D|-----------------------------------------|
A|-----------------------------------------|
F|-----------------------------------------|G2
C|--1-------------------3------------------|
G|--1-------------------3------------------|
C|--1-------------------3------------------|

D|-----------------------------------------|
A|-11--10-----------11---------------------|
F|--------12-10--12------------------------|G1
C|-----------------------------------------|
G|----------------------\\\\\\\\\\\\\\\\\\-|
C|----------------------\\\\\\\\\\\\\\\\\\-|
 |                                         |
D|-----------------------------------------|
A|-----------------------------------------|
F|----------------------7------------------|G2
C|--5-------------------x------------------|
G|--5-------------------5-0-0-0-0-0-0-0-5\-|
C|--5---------------------0-0-0-0-0-0-0-5\-|

Beginning of outro, there is a very soft high note part here if you listen closely but 
to soft for me to tell which notes to tab.
3:07-3:23
D|-------------------------------------------------|
A|-------------------------------------------------|
F|-------------------------------------------------|
C|--1-----------------------3----------------------|
G|--1-----------------------3----------------------|
C|--1-----------------------3----------------------|

D|-----------------------------------| |-------------------------|
A|-----------------------------------| |-------------------------|
F|-----------------------------------| |-------------------------|
C|-5---------------0-----------------| |--1----------------------|
G|-5---------------0-----------------| |--1----------------------|
C|-5---------------0-----------------| |--1----------------------|


D|--------------------------------------------------------------------------|
A|--------------------------------------------------------------------------|
F|--------------------------------------------------------------------------|
C|--3-----------------------5-----------------------------------------------|
G|--3-----------------------5-----------------------\\\\\\\\\\\\\\\\\\\\\\\-|
C|--3-----------------------5-----------------------\\\\\\\\\\\\\\\\\\\\\\\-|


Outro - 3:23-end outro fades
D|------------------------------|------------------------------|
A|------------------------------|------------------------------|
F|------------------------------|------------------------------|G1
C|-t8p0t5p0t8t8p0t5p0t8t8p0t5p0-|-t7p0t3p0t7t7p0t3p0t7t7p0t3p0-|
G|------------------------------|------------------------------|
C|------------------------------|------------------------------|
 |                                                             |
D|------------------------------|------------------------------|
A|------------------------------|------------------------------|
F|------------------------------|------------------------------|
C|--1---------------------------|--3---------------------------|G2
G|--1---------------------------|--3---------------------------|
C|--1---------------------------|--3---------------------------|

D|------------------------------|------------------------------|
A|------------------------------|------------------------------|
F|------------------------------|------------------------------|G1
C|-t8p0t5p0t8t8p0t5p0t8t8p0t5p0-|-t7p0t3p0t7t7p0t3p0t7t7p0t3p0-|
G|------------------------------|------------------------------|
C|------------------------------|------------------------------|
 |                                                             |
D|------------------------------|------------------------------|
A|------------------------------|------------------------------|
F|------------------------------|------------------------------|G2
C|--5---------------------------|--0---------------------------|
G|--5---------------------------|--0---------------------------|
C|--5---------------------------|--0---------------------------|

            
            
Suggest correction
Creating personal tab
Creating personal tab
You can edit any tab online and save it as your Personal.

You can edit, replace or remove any tab part or add personal notes – all changes will be seen only by you.

Personal tabs can be accessed anytime from any device, even offline.
Learn more »
comments
print report bad tab
3 comments total.
0 reply
Jaikan 37 Aug 20, 2010 01:43 PM

Hey awesome tab, thanks

The only correction I have is for "riff 2" I think he uses octaves after the triplets on the C string, so it's like:

|-------------|
|-------------|
|-------------|
|-----8-----8-| and so on...
|-------------|
|-000-6-000-6-|

sweet first tab

0 reply
*bloody gir* 30 Jun 22, 2011 08:11 AM

Ok, thanks :)

0 reply
JB95 274 Mar 26, 2012 10:56 AM

The verse riff is incorrect.
It's extremely easy to hear that the higher notes ring into eachother.
The note on the fifth fret is supposed to be raised by a whole step to the 7th fret in the main riff.
Apart from that, an alright tab.
it gets 4* for now, and 5* later if you fix what I pointed out.

guest
You may want to rate the tab now too:
select rating
Wanna post a correction for this tab? Suggest correction