Oops, an error
Loading. Please wait.

As Daylight Dies album tab

version 1
version 1

Album

Whole song

22,876 views 9 this week
7 commentsread comments
1 2 3 4 5
x 10
add to favorites
×
Save as Personal and add changes to this tab that will be seen only by you. Learn more ›
×
You can save this tab as Personal to edit and correct it or add notes. All changes will be seen only by you. Learn more »
launch autoscroll
font size
0
reset
how to read this tab
guitar tuner
edit
Autoscroll
slow
fast
+/-
esc
set tempo
stop
Author
As Daylight Dies Album

Put Together by Valley Boy


this tab is made up of the highest rated songs
below is a list of the original person to submit them

I TAKE NO CREDIT FOR THIS!!!

1.Daylight Dies - Hawk333
2.This is Absolution - Dru
3.Arms of Sorrow - Dru
4.Unbroken - unregistered user
5.My Curse - sicfreak91
6.For You - Danamlwch
7.Still Beats Your Name - metal10468 
8.Eye of the Storm - Harrisyn
9.Break the Silence - No full song tabs yet:0
10.Desperate times - 666Disturbed666
11.Reject Yourself - unregistered user


Daylight Dies    (C G C F A D)


Intro:

Guitar 1:
                                                                          
D |--------------------------------|                                      
A |--------------------------------|
F |--------------------------------|
C |-0------------------------------|                                      
G |--------------------------------|
C |-0------------------------------|
                                                                          
                                                                          
Guitar 2:
                                                                          
D |--------------------------------|               
A |--------------------------------|                                       
F |-2-----------3--------6---------|                                      
C |--------------------------------|
G |-0-----------1--------4---------|
C |--------------------------------|                                      


Guitar 3:

D |------------------------------------------------|
A |------------------------------------------------|
F |-14---------------------------------------------| 
C |------------------------------------------------|
G |-12---------------------------------------------|
C |------------------------------------------------|

Guitar 1:                                                                 

D |------------------------------------------------|
A |------------------------------------------------|                       
F |------------------------------------------------| 
C |-0---2---0---3-5-7---5-7-8---7---5---3-2-0--7b~-| 
G |------------------------------------------------|                       
C |-0---2---0---3-5-7---5-7-8---7---5---3-2-0--7b~-|


Guitar 2:

D |---------------------------------------------------|
A |---------------------------------------------------|
F |-2-------2---5--7---5-7-10--12-10--9--7--2-5-7-6b~-|
C |-----5---------------------------------------------|
G |-0-------0---3--5---3-5-8---10-8---7--5--0-3-5-4b~-|
C |-----5---------------------------------------------|


Guitar 4:

D |------------------------------------------------------------------|
A |------------------------------------------------------------------|
F |------------------------------------------------------------------|
C |-----7-------8---7---7-------7-------10---8---7-------7-------8---|
G |-0-8---8-0-8---8---8---8-0-8---8-0-8----8---8---8-0-8---8-0-8---8-|
C |------------------------------------------------------------------|
    . .   . . .   .   .   . . .   . . .    .   .   . . .   . . .   .   

D |------------------------------------------------------------------|
A |------------------------------------------------------------------|
F |------------------------------------------------------------------|
C |-7---7-------7-------10---8---7-------7-------8---7---7-------7---|
G |---8---8-0-8---8-0-8----8---8---8-0-8---8-0-8---8---8---8-0-8---8-|
C |------------------------------------------------------------------|
      .   . . .   . . .    .   .   . . .   . . .   .   .   . . .   .

D |-------------------------------------------------------------------|
A |-------------------------------------------------------------------|
F |-------------------------------------------------------------------| 
C |-----10---8---7-------7-------8---7---7-------7-------10---8---7---|
G |-0-8----8---8---8-0-8---8-0-8---8---8---8-0-8---8-0-8----8---8---8-|
C |-------------------------------------------------------------------|
    . .    .   .   . . .   . . .   .   .   . . .   . . .    .   .   .

D |------------------------------------------------------------------|
A |------------------------------------------------------------------|
F |------------------------------------------------------------------| 
C |-----7-------8---7---7-------7-------10---8---7---7b~-------------|
G |-0-8---8-0-8---8---8---8-0-8---8-0-8----8---8---8-----------------|
C |------------------------------------------------------------------|
    . .   . . .   .   .   . . .   . . .    .   .   .


Riff 1:  4x

Guitar 1:

D |------------------------------------------------------------------------|
A |------------------------------------------------------------------------|
F |--------------------------------------------------/10p9-7h9-/10p9-------|
C |------------------------------------------------------------------10h12-|
G |-000-000-000-000-000-000-000-000-000-000-000-000------------------------|
C |-000-000-000-000-000-000-000-000-000-000-000-000------------------------|
    ... ... ... ... ... ... ... ... ... ... ... ...

Guitar 2:

D|----------------------------------------------------------------------------|
A|----------------------------------------------------------------------------|
F|--------------------------------------------------/14p12-10h12-/14p12-------|
C|----------------------------------------------------------------------14h15-|
G|-000-000-000-000-000-000-000-000-000-000-000-000----------------------------|
C|-000-000-000-000-000-000-000-000-000-000-000-000----------------------------|
   ... ... ... ... ... ... ... ... ... ... ... ...


Riff 2: 

Guirar 1:

D |-----------------------------------------------------------|
A |-----------------------------------------------------------|
F |-----2-----0-----2h3p2-------------------------------------|
C |-----------------------5-3-2-------------------------------|
G |-----------------------------5-3----0--0-0-0----0--0-0-0-0-|
C |-0-0---0-0---0-0-----------------3b-0--0-0-0-3b-0--0-0-0-0-|
    . .   . .   . .       . .   . .    .  . . .    .  . . .

Guitar 2:

D |-----------------------------------------------------------|
A |-----------------------------------------------------------|
F |-----5-----2-----5h7p5-------------------------------------|
C |-----------------------8-7-5-------------------------------|
G |-----------------------------8-7----0--0-0-0----0--0-0-0-0-|
C |-0-0---0-0---0-0-----------------3b-0--0-0-0-3b-0--0-0-0-0-|
    . .   . .   . .       . .   . .    .  . . .    .  . . .

Guirar 1:

D |-----------------------------------------------------------|
A |-----------------------------------------------------------|
F |-----2-----0-----2h3p2-------------------------------------|
C |-----------------------5-3-2-------------------------------|
G |-----------------------------5-3----0--0-0-0----0--\\\\\\\-|
C |-0-0---0-0---0-0-----------------3b-0--0-0-0-3b-0--\\\\\\\-|
    . .   . .   . .       . .   . .    .  . . .    .(pickslide)  

Guitar 2:

D |-----------------------------------------------------------|
A |-----------------------------------------------------------|
F |-----5-----2-----5h7p5-------------------------------------|
C |-----------------------8-7-5-------------------------------|
G |-----------------------------8-7----0--0-0-0----0--\\\\\\\-|
C |-0-0---0-0---0-0-----------------3b-0--0-0-0-3b-0--\\\\\\\-|
    . .   . .   . .       . .   . .    .  . . .    .(pickslide)

Guirar 1:

D |-----------------------------------------------------------|
A |-----------------------------------------------------------|
F |-----2-----0-----2h3p2-------------------------------------|
C |-----------------------5-3-2-------------------------------|
G |-----------------------------5-3----0--0-0-0----0--0-0-0-0-|
C |-0-0---0-0---0-0-----------------3b-0--0-0-0-3b-0--0-0-0-0-|
    . .   . .   . .       . .   . .    .  . . .    .  . . .

Guitar 2:

D |---------------------------------------------------------|
A |---------------------------------------------------------|
F |---------------------------------------------------------|
C |-3---------------3/5-5-5-5-5-5---------------------------|
G |-3---------------3/5-5-5-5-5-5-3b-0--0-0-0-3b-0--0-0-0-0-|
C |-3---------------3/5-5-5-5-5-5----0--0-0-0----0--0-0-0-0-|
                                     .  . . .    .  . . .

Guirar 1:

D |------------------------------------------------------|
A |------------------------------------------------------|
F |-----2-----0-----2h3p2--------------------------------|
C |-----------------------5-3-2--------------------------|
G |-----------------------------5-3----0--0-0-0----0-----|
C |-0-0---0-0---0-0-----------------3b-0--0-0-0-3b-0-12\-|
    . .   . .   . .       . .   . .    .  . . .    .  

Guitar 2:

D |----------------------------------------------------|
A |----------------------------------------------------|
F |----------------------------------------------------|
C |-3---------------3/5-5-5-5-5-5----------------------|
G |-3---------------3/5-5-5-5-5-5-3b-0--0-0-0-3b-0-----|
C |-3---------------3/5-5-5-5-5-5----0--0-0-0----0-12\-|
                                     .  . . .    .  


Chorus:

Guitar 1:

D |--------------------------------------------------|
A |--------------------------------------------------|
F |--------------------------------------------------|
C |-0-----------3-----------8-----------10---8---7---| 
G |-0-----------3-----------8--------------8---8---8-|
C |-0-----------3-----------8------------------------|
                                           .   .   .

D |--------------------------------------------------------|
A |--------------------------------------------------------|
F |--------------------------------------------------------|
C |-0-----------10----------------8-----------10---8---7---| 
G |-0-----------10----------------8--------------8---8---8-|
C |-0-----------10----------------8------------------------|
                                                 .   .   .

Guitar 2:

D |------------------------------------------------|
A |------------------------------------------------|
F |------------------------------------------------|
C |-----7-------8---7---7-----7-------10---8---7---| 
G |-0-8---8-0-8---8---8---0-8---8-0-8----8---8---8-|
C |------------------------------------------------|
    . .   . . .   .   .   . .   . . .    .   .   .

Guitar 1:

D |--------------------------------------------------|
A |--------------------------------------------------|
F |--------------------------------------------------|
C |-------------------------------------10---8---7---| 
G |-0-0-0-0-0-0-3-3-3-3-3-3-8-8-8-8-8-8----8---8---8-|
C |-0-0-0-0-0-0-3-3-3-3-3-3-8-8-8-8-8-8--------------|
    . . . . . . . . . . . . . . . . . .    .   .   .

D |--------------------------------------------------------|
A |--------------------------------------------------------|
F |--------------------------------------------------------|
C |-------------------------------------------10---8---7---| 
G |-0-0-0-0-0-0-10-10-10-10-10-10-8-8-8-8-8-8----8---8---8-|
C |-0-0-0-0-0-0-10-10-10-10-10-10-8-8-8-8-8-8--------------|
    . . . . . . .  .  .  .  .  .  . . . . . .    .   .   .

Guitar 2:

D |------------------------------------------------|
A |------------------------------------------------|
F |------------------------------------------------|
C |-----7-------8---7---7-----7-------10---8---7---| 
G |-0-8---8-0-8---8---8---0-8---8-0-8----8---8---8-|
C |------------------------------------------------|
    . .   . . .   .   .   . .   . . .    .   .   .

Riff 1: 4x

Guitar 1:

D |------------------------------------------------------------------------|
A |------------------------------------------------------------------------|
F |--------------------------------------------------/10p9-7h9-/10p9-------|
C |------------------------------------------------------------------10h12-|
G |-000-000-000-000-000-000-000-000-000-000-000-000------------------------|
C |-000-000-000-000-000-000-000-000-000-000-000-000------------------------|
    ... ... ... ... ... ... ... ... ... ... ... ...

Guitar 2:

D|----------------------------------------------------------------------------|
A|----------------------------------------------------------------------------|
F|--------------------------------------------------/14p12-10h12-/14p12-------|
C|----------------------------------------------------------------------14h15-|
G|-000-000-000-000-000-000-000-000-000-000-000-000----------------------------|
C|-000-000-000-000-000-000-000-000-000-000-000-000----------------------------|
   ... ... ... ... ... ... ... ... ... ... ... ...

Riff 3:

Guitar 2:

D |---------------------------------|
A |---------------------------------|
F |---------------------------------|     2x
C |-----7---------------7-----------|
G |-0-8---8-0-8-0-8-0-8---8-0-8-0-8-|
C |---------------------------------|
    . .   . . . . . . .   . . . . .

Guitar 1:

D |-------------------------------------------|
A |-------------------------------------------|
F |-------------------------------------------|
C |------10-------------------10--------------|       1x
G |-0-12----12-0-12-0-12-0-12----12-0-12-0-12-|
C |-------------------------------------------|
    . .     .    .    .    .     .    .    .


Chorus:

Guitar 1:

D |--------------------------------------------------|
A |--------------------------------------------------|
F |--------------------------------------------------|
C |-0-----------3-----------8-----------10---8---7---| 
G |-0-----------3-----------8--------------8---8---8-|
C |-0-----------3-----------8------------------------|
                                           .   .   .

D |--------------------------------------------------------|
A |--------------------------------------------------------|
F |--------------------------------------------------------|
C |-0-----------10----------------8-----------10---8---7---| 
G |-0-----------10----------------8--------------8---8---8-|
C |-0-----------10----------------8------------------------|
                                                 .   .   .

Guitar 2:

D |------------------------------------------------|
A |------------------------------------------------|
F |------------------------------------------------|
C |-----7-------8---7---7-----7-------10---8---7---|  
G |-0-8---8-0-8---8---8---0-8---8-0-8----8---8---8-|
C |------------------------------------------------|
    . .   . . .   .   .   . .   . . .    .   .   .

Guitar 1:

D |--------------------------------------------------|
A |--------------------------------------------------|
F |--------------------------------------------------|
C |-------------------------------------10---8---7---| 
G |-0-0-0-0-0-0-3-3-3-3-3-3-8-8-8-8-8-8----8---8---8-|
C |-0-0-0-0-0-0-3-3-3-3-3-3-8-8-8-8-8-8--------------|
    . . . . . . . . . . . . . . . . . .    .   .   .

D |--------------------------------------------------------|
A |--------------------------------------------------------|
F |--------------------------------------------------------|
C |-------------------------------------------10---8---7---| 
G |-0-0-0-0-0-0-10-10-10-10-10-10-8-8-8-8-8-8----8---8---8-|
C |-0-0-0-0-0-0-10-10-10-10-10-10-8-8-8-8-8-8--------------|
    . . . . . . .  .  .  .  .  .  . . . . . .    .   .   .

Guitar 2:

D |------------------------------------------------|
A |------------------------------------------------|
F |------------------------------------------------| 
C |-----7-------8---7---7-----7-------10---8---7---|
G |-0-8---8-0-8---8---8---0-8---8-0-8----8---8---8-|
C |------------------------------------------------|
    . .   . . .   .   .   . .   . . .    .   .   .


Riff 4:

Guitar 1:

D |-----------------------------------------------------------------|
A |-----------------------------------------------------------------|
F |-7-7-7-7-7-7-7-7-2-2-2-2-2-2-2-2-3-3-3-3-3-3-3-3-5-5-5-5-5-5-5-5-|
C |-----------------------------------------------------------------|  4x
G |-5-5-5-5-5-5-5-5-0-0-0-0-0-0-0-0-1-1-1-1-1-1-1-1-3-3-3-3-3-3-3-3-|
C |-----------------------------------------------------------------|

Guitar 2:

D |-----|---------------------------------------------|
A |-----|---------------------------------------------|
F |-----|-7-7-7-7-10-10-10-10-12-12-12-12-14-14-14-14-|  3x
C |-----|---------------------------------------------|
G |-----|-5-5-5-5-8--8--8--8--10-10-10-10-12-12-12-12-|
C |-12\-|---------------------------------------------|


Riff 5:

Guitar 1 & 2:

D |-----|-------------------------------------------------------|
A |-----|-------------------------------------------------------|
F |-----|-------------------------------------------------------|
C |-----|-------------------------------------------------------|
G |-----|-0-0-0-0-0-0-0-0-0-0-0-0-0-0-0-0---0-0-0-0---0-0-0-0---|
C |-12\-|-0-0-0-0-0-0-0-0-0-0-0-0-0-0-0-0---0-0-0-0---0-0-0-0---|
          . . . . . . . . . . . . . . . .   . . . .   . . . .    

Guitar 1 & 2:

D |---------------------------------------------------------|
A |---------------------------------------------------------|
F |---------------------------------------------------------|
C |-------------------------------------------3\---------3\-|
G |-0-0-0-0-0-0-0-0-0-0-0-0-0-0-0-0---0-0-0-0-5\-0-0-0-0-5\-|
C |-0-0-0-0-0-0-0-0-0-0-0-0-0-0-0-0---0-0-0-0----0-0-0-0----|
    . . . . . . . . . . . . . . . .   . . .      . . .  

Guitar 2:

D |-------------------------------------------------------|
A |-------------------------------------------------------|
F |-------------------------------------------------------|
C |-------------------------------------------------------|
G |-0-0-0-0-0-0-0-0-0-0-0-0-0-0-0-0---0-0-0-0---0-0-0-0---|
C |-0-0-0-0-0-0-0-0-0-0-0-0-0-0-0-0---0-0-0-0---0-0-0-0---|
    . . . . . . . . . . . . . . . .   . . . .   . . . .    

Guitar 1:

D |-----------------------------------------------------------------|
A |-----------------------------------------------------------------|
F |-7-7-7-7-7-7-7-7-2-2-2-2-2-2-2-2-3-3-3-3-3-3-3-3-5-5-5-5-5-5-5-5-|
C |-----------------------------------------------------------------|
G |-5-5-5-5-5-5-5-5-0-0-0-0-0-0-0-0-1-1-1-1-1-1-1-1-3-3-3-3-3-3-3-3-|
C |-----------------------------------------------------------------|

Guitar 2:

D |---------------------------------------------------------|
A |---------------------------------------------------------|
F |---------------------------------------------------------|
C |-------------------------------------------3\---------3\-|
G |-0-0-0-0-0-0-0-0-0-0-0-0-0-0-0-0---0-0-0-0-5\-0-0-0-0-5\-|
C |-0-0-0-0-0-0-0-0-0-0-0-0-0-0-0-0---0-0-0-0----0-0-0-0----|
    . . . . . . . . . . . . . . . .   . . .      . . .  
 
Guitar 1:

D |-----------------------------------------------------------------|
A |-----------------------------------------------------------------|
F |-7-7-7-7-7-7-7-7-2-2-2-2-2-2-2-2-3-3-3-3-3-3-3-3-5-5-5-5-5-5-5-5-|
C |-----------------------------------------------------------------|
G |-5-5-5-5-5-5-5-5-0-0-0-0-0-0-0-0-1-1-1-1-1-1-1-1-3-3-3-3-3-3-3-3-|
C |-----------------------------------------------------------------|


Chorus:

Guitar 1:

D |--------------------------------------------------|
A |--------------------------------------------------|
F |--------------------------------------------------|
C |-0-----------3-----------8-----------10---8---7---| 
G |-0-----------3-----------8--------------8---8---8-|
C |-0-----------3-----------8------------------------|
                                           .   .   .

D |--------------------------------------------------------|
A |--------------------------------------------------------|
F |--------------------------------------------------------|
C |-0-----------10----------------8-----------10---8---7---| 
G |-0-----------10----------------8--------------8---8---8-|
C |-0-----------10----------------8------------------------|
                                                 .   .   .

Guitar 2:

D |------------------------------------------------|
A |------------------------------------------------|
F |------------------------------------------------|
C |-----7-------8---7---7-----7-------10---8---7---| 
G |-0-8---8-0-8---8---8---0-8---8-0-8----8---8---8-|
C |------------------------------------------------|
    . .   . . .   .   .   . .   . . .    .   .   .

Guitar 1:

D |--------------------------------------------------|
A |--------------------------------------------------|
F |--------------------------------------------------|
C |-------------------------------------10---8---7---| 
G |-0-0-0-0-0-0-3-3-3-3-3-3-8-8-8-8-8-8----8---8---8-|
C |-0-0-0-0-0-0-3-3-3-3-3-3-8-8-8-8-8-8--------------|
    . . . . . . . . . . . . . . . . . .    .   .   .

D |--------------------------------------------------------|
A |--------------------------------------------------------|
F |--------------------------------------------------------|
C |-------------------------------------------10---8---7---| 
G |-0-0-0-0-0-0-10-10-10-10-10-10-8-8-8-8-8-8----8---8---8-|
C |-0-0-0-0-0-0-10-10-10-10-10-10-8-8-8-8-8-8--------------|
    . . . . . . .  .  .  .  .  .  . . . . . .    .   .   .

Guitar 2:

D |------------------------------------------------|
A |------------------------------------------------|
F |------------------------------------------------| 
C |-----7-------8---7---7-----7-------10---8---7---|
G |-0-8---8-0-8---8---8---0-8---8-0-8----8---8---8-|
C |------------------------------------------------|
    . .   . . .   .   .   . .   . . .    .   .   .

Guitar 1: 2x

D |-------------------------------------------------------------|
A |-------------------------------------------------------------|
F |-2-2-2-2-2-2-5-5-5-5-5-5-10-10-10-10-10-10-10-10-10-10-10-10-|
C |-------------------------------------------------------------|
G |-0-0-0-0-0-0-3-3-3-3-3-3-8--8--8--8--8--8--8--8--8--8--8--8--|
C |-------------------------------------------------------------|

D |-------------------------------------------------------------------------|
A |-------------------------------------------------------------------------|
F |-14-14-14-14-14-14-12-12-12-12-12-12-10-10-10-10-10-10-10-10-10-10-10-10-|
C |-------------------------------------------------------------------------|
G |-12-12-12-12-12-12-10-10-10-10-10-10-8--8--8--8--8--8--8--8--8--8--8--8--|
C |-------------------------------------------------------------------------|


Guitar 2: 2x

D |------------------------------------------------|
A |------------------------------------------------|
F |------------------------------------------------| 
C |-----7-------8---7---7-----7-------10---8---7---|
G |-0-8---8-0-8---8---8---0-8---8-0-8----8---8---8-|
C |------------------------------------------------|
    . .   . . .   .   .   . .   . . .    .   .   .

Guitar 1:

D |------------------------------------------------|
A |------------------------------------------------|
F |-10---------------------------------------------| 
C |------------------------------------------------|
G |-8----------------------------------------------|
C |------------------------------------------------|
  

Guitar 2:

D |------------------------------------------------|
A |------------------------------------------------|
F |------------------------------------------------| 
C |-0----------------------------------------------|
G |-0----------------------------------------------|
C |-0----------------------------------------------|


=================================================================================
This is Absolution


Tuning: Drop C (CGCFAD)

Intro/Verse part one:
Guitar 1
D|--------|---------------------------------------------------------------|
A|--------|---------------------------------------------------------------|
F|-5---7--|---------------------------------------------------------------|
C|-5-5-7-0|----------------------------------------7777557755445544-------|
G|-3-5-5-0|--------------------5p2p0--------------------------------------|
C|---5---0|0h22222h5p222222h4h5-----0h22222h5p2222------------------------|
     x1                            x2
Guitar 2 
D|--------|---------------------------------------------------------------|
A|--------|---------------------------------------------------------------|
F|-5---7--|---------------------------------------7777557755445544--------|
C|-5-5-7-0|---------------------------------------------------------------|
G|-3-5-5-0|--------------------5p2p0--------------------------------------|
C|---5---0|0h22222h5p222222h4h5-----0h22222h5p2222------------------------|
     x1                                x2
Verse part 2:
Both Guitars
D|----------------------------------------|-------------------------------|
A|----------------------------------------|-------------------------------|
F|----------------------------------------|5---7--------------------------|
C|-0002222-22-2-5-4h5---0002222-22-2-5h4p0|5-5-7-0------------------------|
G|-0002222-22-2-5-4h5---0002222-22-2-5h4p0|3-5-5-0------------------------|
C|-0002222-22-2-5-4h5---0002222-22-2-5p4p0|--5---0------------------------|
    .. ... .. .          .. ... .. .
                     x4                          After the 2nd Time
Pre-Chorus Riff:
Guitar 1
D|------------------------------------------------------------------------|
A|------------------------------------------------------------------------|
F|--7-45420---------------------------------------------------------------|
C|------------------------------------------------------------------------|
G|------------------------------------------------------------------------|
C|------------------------------------------------------------------------|

Guitar 2 (Does this only before the 2nd Chorus)
D|------------------------------------------------------------------------|
A|------------------------------------------------------------------------|
F|------------------------------------------------------------------------|
C|--7-45420---------------------------------------------------------------|
G|------------------------------------------------------------------------|
C|------------------------------------------------------------------------|

Chorus:
Guitar 1
D|------------------------------------------------------------------------|
A|------------------------------------------------------------------------|
F|-4/55555555/777777---------------4-4/55555------------------------------|
C|-4/55555555/777777-0h2222222222--4-4/55555------------------------------|
G|-2/33333333/555555-0h2222222222--2-2/33333------------------------------|
C|-------------------0h2222222222-----------------------------------------|
          x2
Guitar 2
D|----------------------------------|------------------------------------|
A|-888888\7777/88888---7-7/88888----|-5~---------------------------------|
F|-xxxxxx\xxxx/xxxxx---x-x/xxxxx----|-x~---------------------------------|
C|-555555\4444/55555---4-4/55555----|-2~---------------------------------|
G|----------------------------------|------------------------------------|
C|----------------------------------|------------------------------------|
            x2                         2nd time end on This
After Chorus:
Guitar 1
D|------------------------------------|
A|------------------------------------|
F|-5--------5--------55-5--------5----|
C|-5--0--2--5--0--2--55-5--0--2--5--0-|
G|-3--0--2--3--0--2--33-3--0--2--3--0-|
C|----0--2-----0--2--------0--2-----0-|
   .  .  .  .  .  .   . .  .  .  .  .
Guitar 2 (Clean)
D|----0-----0-----0-----0-----0-----0---2--0--2-----0-----0---------------|
A|---0-0---0-0---0-0---0-0---0-0---0-0---3--0--3---0-0---0-0--------------|
F|--0---0-0---0-0---0-0---0-0---0-0---0---2--0--2-0---0-0---0-------------|
C|------------------------------------------------------------------------|
G|-3-----------------3-----------------3---------------3------------------|
C|-------0-----2-----------0-----2---------------2-----------0~~----------|

Repeat Verse Parts 1 and 2
Repeat Chorus and After Chorus

Bridge 
Guitar 1 
D|------------------------------------------------------------------------|
A|------------------------------------------------------------------------|
F|------------------------------------55555--5--5--5----------------------|
C|-22222------------00000-------------55555--5--5--5---000000000000-------|
G|-22222------------00000-------------33333--3--3--3---000000000000-------|
C|-22222h52h42h52h4-00000h50h40h50h40------h5-h4-h5-h4-000000000000-------|
    ....             ....              ....  .  .  .    ...........
                                 x4
Guitar 2 (part 1)
D|------------------------------------------------------------------------|
A|------------------------------------------------------------------------|
F|------------5~----------------------------------------------------------|
C|--2~---0~---5~---0~-----------------------------------------------------|
G|--2~---0~---3~---0~-----------------------------------------------------|
C|--2~---0~--------0~-----------------------------------------------------|
          x2
Guitar 2 (Part 2) Do this Twice
D|---------------------------|-----------------------|
A|---------------------------|--------------------------------|
F|---7-7-7-7-2-2-4-4---------|-------------------------------|
C|----5-5-5-5-4-4-5-5--------|-4-4-4-4-5-5-7-7--------------------------|
G|---------------------------|--5-5-5-5-7-7-9-9-------------------------|
C|---------------------------|-----------------------------------|
      . . . . . . . .           . . . . . . . . 
              x3          

Then repeat the Chorus and the After Chorus

 /  slide up
 \  slide down
 h  hammer-on
 p  pull-off
 ~  vibrato
 +  harmonic
 . or x  Mute note


============================================================================================
Arms of Sorrow



Intro (Clean)
Guitar 1
D|------------------------------------------------------------------------|
A|----3------1-----3------3-------3------1----3~--------------------------|
F|--0--0-0-0--0-0-0-0-0-0--0-0--0--0-0-0--0-0-0~--------------------------|
C|-1-1--1-3-3--3-5-5-5-0-0--0--1-1--1-3-3--3--5~--------------------------|
G|------------------------------------------------------------------------|
C|------------------------------------------------------------------------|

Guitar 2 (Clean)
D|------------------------------------------------------------------------|
A|44444444-66666666-88888888-33333333-44444444-66666666-8~----------------|
F|33333333-55555555-77777777-22222222-33333333-55555555-7~----------------|
C|11111111-33333333-55555555-00000000-11111111-33333333-5~----------------|
G|------------------------------------------------------------------------|
C|------------------------------------------------------------------------|

Verse part 1(Distorted)
Guitar 1
D|------------------------------------------------------------------------|
A|------------------------------------------------------------------------|
F|5--5--5--5--5--5---5--5--5-----7~---10~---------------------------------|
C|3--3--3--3--3--3---3--3--3-------8~7~--8~7~-----------------------------|
G|----------------5/6-66-66-666-------------------------------------------|
C|-55-55-55-55-55---------------------------------------------------------|
   .. .. .. .. ..   . .. .. ...
                     x4

Guitar 2
D|------------------------------------------------------------------------|
A|------------------------------------------------------------------------|
F|------------------------------------------------------------------------|
C|--5~-1~--3~-------------------------------------------------------------|
G|--5~-1~--3~-------------------------------------------------------------|
C|--5~-1~--3~-------------------------------------------------------------|
       2x then Play same as Guitar 1

Verse part 2
Guitars 1 & 2
D|------------------------------------------------------------------------|
A|------------------------------------------------------------------------|
F|---8---8--8-------------------8---8--8----------------------------|
C|---x---x--x-0000-0-0000-0-----x---x--x-1-0-1-4-3-1----------------|
G|---6---6--6-0000-0-0000-0-----6---6--6-1-0-1-4-3-1----------------|
C|000-000-00--0000-0-0000-0--000-000-00--1-0-1-4-3-1----------------|
  ... ...  .. .... . .... .  ... ... ..    
                     2X
Then back to Verse part 1
do it 2 times

Chorus
Guitar 1
D|x\----------------------------------------------------------------------|
A|x\----------------------------------------------------------------------|
F|x\------------------------------7--7------------------------------------|
C|x\11111111--33333333--55555555--x--x------------------------------------|
G|x\11111111--33333333--55555555--5--5------------------------------------|
C|x\11111111--33333333--55555555---00-00----------------------------------|
                                   .. ..
                               2x
Guitar 2 (Not very loud on the CD but its definately there)

D|-----------------------|-----------13-----------------------------------|
A|--11-10--------11------|--13-11-10----11-10-----------------------------|
F|-------12-10-12--------|------------------------------------------------|
C|-----------------------|------------------------------------------------|
G|-----------------------|------------------------------------------------|
C|-----------------------|------------------------------------------------|
               3x
        Do Verse Part 2 again and then Verse Part 1
        Then repeat the Chorus

Bridge
Guitar 1
D|----------------------------|-------------------------------------------|
A|----------------------------|-------------------------------------------|
F|----------------------------|-------------------------------------------|
C|t7p0t3p0t7t7p0t3p0t7t7p0t3p0|t10p0t7p0t10t10p0t7p0t10t10p0t7p0----------|
G|----------------------------|-------------------------------------------|
C|----------------------------|-------------------------------------------|
                x2                              x2

D|----------------------------|-------------------------------------------|
A|----------------------------|-------------------------------------------|
F|----------------------------|-------------------------------------------|
C|t8p0t5p0t8t8p0t5p0t8t8p0t5p0|t7p0t3p0t7t7p0t3p0t7t7p0t3p0---------------|
G|----------------------------|-------------------------------------------|
C|----------------------------|-------------------------------------------|
                x2

D|----------------------------|-------------------------------------------|
A|----------------------------|-------------------------------------------|
F|----------------------------|-------------------------------------------|
C|t5p0t2p0t5t5p0t2p0t5t5p0t2p0|-------------------------------------------|
G|----------------------------|-------------------------------------------|
C|----------------------------|-------------------------------------------|

                      Do the whole thing twice
   (You dont have to tap the notes, it sounds just fine without the tapping)
Guitar 2
D|-----------|------------------------------------------------------------|
A|-----------|------------------------------------------------------------|
F|-----------|------------------------------------------------------------|
C|5~-1~-0~-7~|0000000-00000-00000-3333333-33333-33333-1111111-11111-11111-|
G|5~-1~-0~-7~|0000000-00000-00000-3333333-33333-33333-1111111-11111-11111-|
C|5~-1~-0~-7~|0000000-00000-00000-3333333-33333-33333-1111111-11111-11111-|
              ....... ..... ..... ....... ..... ..... ....... ..... .....
 Part way through 1st time          do all of 2nd time

Finish on
D|------------------------------------------------------------------------|
A|------------------------------------------------------------------------|
F|------------------------------------------------------------------------|
C|0000000-----------------------------------------------------------------|
G|0000000-----------------------------------------------------------------|
C|0000000-----------------------------------------------------------------|
  .......
                        Then repeat the Intro once

                     Then Repeat Chorus
While guitar 1 does the normal progression,
Guitar 2
D|----------------------------|-------------------------------------------|
A|----------------------------|-------------------------------------------|
F|----------------------------|-------------------------------------------|
C|t8p0t5p0t8t8p0t5p0t8t8p0t5p0|t7p0t3p0t7t7p0t3p0t7t7p0t3p0---------------|
G|----------------------------|-------------------------------------------|
C|----------------------------|-------------------------------------------|

                   Repeat and Fade Out

Key:

/ Slide up
\ Slide Down
h Hammer on
p Pull off
t Tap
X Mute Note
. Palm Mute

=========================================================================
Unbroken


I only tabbed one guitar because this my part when i play it in my band
well, here it is . so enjoy :)
.= palm mute
~=let ring
Intro/Verse

D-----------------------------------------------------------------------|
A-----------------------------------------------------------------------|
F-----------------------------------------------------------------------|
C-----------------------------------------------------------------------|
G-5---6---5---------5---3---------3---5---6---5---------5---3~0-0-0-0-0-|
C--0-0-0-0-0-0-5-0-0-0-0-0-0-3-0-0-0-0-0-0-0-0-0-0-5-0-0-0-0--0-0-0-0-0-|
   . . . . . .   . . . . . .   . . . . . . . . . .   . . . .  . . . . .
Verse (extended)

----------------------------------------|
----------------------------------------|
----------------------------------------|
-----------------------------7p5h7p5----|
-0-0-0-0-0-0-0-0-0-------8-7--------7/8-|
-0-0-0-0-0-0-0-0-0--(x3)-8-7------------|
 . . . . . . . . .

Pre-Chorus

---------------------------------|
---------------------------------|
-5/7-7-7-7-7-7-7-5-7-7-7-7-7-7-7-|
-x/x-x-x-x-x-x-x-x-x-x-x-x-x-x-x-|
-3/5-5-5-5-5-5-5-3/5-5-5-5-5-5-5-|
---------------------------------|

Chorus

--------------------------------------------------------------------------|
--------------------------------------------------------------------------|
-5/7-7-7-7-7-------------5/7-7-7-7-7-7------------7p5h7p5-5----------5----|
-x/x-x-x-x-x-------------x/x-x-x-x-x-x-------------------8-8-7-5-7-8--8-7-|
-3/5-5-5-5-5-0-0-0-0-0-0-3/5-5-5-5-5-5-0-0-0-0-0-0------------------------|
-------------0-0-0-0-0-0---------------0-0-0-0-0-0------------------------|
             . . . . . .               . . . . . .

Interlude

-------------------------------------------------|
-------------------------------------------------|
-------------------------------------------------|
-------------------------------------------------|
-------7----------7-----------8------------8-----|
-0-7h8--8p7-0-7h8--8p7-0-8h10--10p8-0-8h10--10p8-|

-------------------------------------------------------------|
-------------------------------------------------------------|
-------------------------------------------------------------|
-------------------------------------------------------------|
---------12--------------12-------------10------------10-----|
-0-10h12---12p10-0-10h12---12p10-0-8h10---10p8-0-8h10---10p8-|

Next bit (bridge?)

----------------------------------------------------|
----------------------------------------------------|
----------------------------------------------------|
-------8\7/8-------5/7/8-7--------------------------|
-------6\5/6-------3/5/6-5-----8-7-8-0-0-0-1h3/4-0~-|
-0~0-0-------0-0-0---------0-0-8-7-8-0-0-0-1h3/4-0~-|
   . .       . . .         . .       . . .
-----------------------------|
-----------------------------|
-----------------------------|
-----------------------------|
-0-0-0-0-0-0-1-1-1-1-1-1h3/4-|
-0-0-0-0-0-0-1-1-1-1-1-1h3/4-|
 . . . . . . . . . . .
---------------------------|
---------------------------|
---------------------------|
---------------------------|
-0-0-0-0-0-0-1-1-1-1-1h3/4-|
-0-0-0-0-0-0-1-1-1-1-1h3/4-|
 . . . . . . . . . .


SONG ORDER
INTRO/VERSE x2
VERSE (extended) x2
INTRO/VERSE x2
PRECHORUS
CHORUS x4
INTRO/VERSE x2
VERSE (extended)x2
CHORUS x4
INTERLUDE x4
BRIDGE (1st part) x 4
BRIDGE (2nd part) x2

================================================================================
My Curse

Tuning: Drop C (C G C F A D)


Intro:(clean with some delay) Part A
Guitar 1: let ring
|---------------------------------------------------------------|
|--------10----------10------------6----------6-----------------|
|-----10----8----10-----8------5-----5----5-----5---------------|
|---8---8------8----8--------8---8------8---8-------------------|
|---------------------------------------------------------------|
|---------------------------------------------------------------|

Guitar 2: strum
|---------------------------------------------------------------|
|-^-10~-------------------^-6~----------------------------------|
|-.-10~-------------------.-5~----------------------------------|
|-.-8~--------------------.-8~----------------------------------|
|-.-8~--------------------.-5~----------------------------------|
|-.-8~--------------------.-5~----------------------------------|
-----
Gtr 1:
|-------------------0-----------------------0-------------------|
|--------6------------6----------6------------6-----------------|
|-----5----5----5------------5-----5----5-----------------------|
|---7--7------7---7--------7---7------7---7---------------------|
|---------------------------------------------------------------|
|---------------------------------------------------------------|

Gtr 2:
|---------------------------------------------------------------|
|-^-6~-------------------^-6~-----------------------------------|
|-.-5~-------------------.-5~-----------------------------------|
|-.-7~-------------------.-7~-----------------------------------|
|-.-5~-------------------.-5~-----------------------------------|
|-.-0~-------------------.-0~-----------------------------------|
Repeat all part A once

Part B (distorted)
Gtr.1:
|---------------------------------------------------------------|
|--------10--------------10---------------6------------6--------|
|---10--------10----10--------10------5-------5----5-------5----|
|-8----8----8-----8----8----8-------8---8---8----8---8---8------|
|---------------------------------------------------------------|
|---------------------------------------------------------------|
PM.    .    .     .    .    .       .   .   .    .   .   .

Gtr. 2:
|---------------------------------------------------------------|
|----------------10~-------\----------------------6~---------\--|
|----------------10~-------\----------------------5~---------\--|
|----------------8~--------\----------------------8~---------\--|
|----------------8~--------\----------------------5~---------\--|
|-8-8-8-8-8-8----8~--------\-------5-5-5-5-5-5----5~---------\--|
PM. . . . . .                      . . . . . .
-----
Gtr.1:
|--------------------0---------------------------0--------------|
|-------6----------------6----------6----------------6----------|
|---5-------5----5--------------5-------5----5------------------|
|-7---7---7----7---7---7------7---7---7----7---7---7------------|
|---------------------------------------------------------------|
|---------------------------------------------------------------|
PM.   .   .    .   .   .      .   .   .    .   .   .

Gtr.2:
|---------------------------------------------------------------|
|---------------------------------------------------------------|
|----------------7~--------\------------------7~----------\-----|
|----------------7~--------\------------------7~----------\-----|
|----------------5~--------\------------------5~----------\-----|
|-0-0-0-0-0-0-----------------0-0-0-0-0-0-----------------------|
PM. . . . . .                 . . . . . .   

Part C (distorted)
Gtr.1:
|---------------------------------------------------------------|
|---------------------------------------------------------------|
|---------------------------------------------------------------|
|-5-----3-------------------------------------------------------|
|-5-----3------------------------------5------------------------|
|---0-0---0-0-/6-0-0-5-0-0-3p0-0-0--/7---7-6-5-0-3-5------------|
-----
(Gtr.2 comes in)
Gtr 1:
|---------------------------------------------------------------|
|---------------------------------------------------------------|
|---------------------------------------------------------------|
|-5-----3-------------------------------------------------------|
|-5-----3------------------------------3--------(P.H)-----------|
|---0-0---0-0-/6-0-0-5-0-0-3p0-0-0--/5---5-4-3-0-3*v------------|

Gtr 2:
|---------------------------------------------------------------|
|-3~---------------3~-------------------------------------------|
|-2~---------------2~-------------------------------------------|
|-0~---------------0~-------------------------------------------|
|-0~---------------0~------------------3--------(P.H)-----------|
|-0~---------------0~---------------/5---5-4-3-0-3*v------------|

Verse:(distorted)
Both Guitars:
|---------------------------------------------------------------|
|---------------------------------------------------------------|
|---------------------------------------------------------------|
|-5-----3-------------------------------------------------------|--|
|-5-----3------------------------------5------------------------|  |
|---0-0---0-0-/6-0-0-5-0-0-3p0-0-0--/7---7-6-5-0-3-5------------|  |
                                                                    X3 
|---------------------------------------------------------------|  |
|---------------------------------------------------------------|  |
|---------------------------------------------------------------|--|
|-5-----3-------------------------------------------------------|
|-5-----3------------------------------3--------(P.H)-----------|
|---0-0---0-0-/6-0-0-5-0-0-3p0-0-0--/5---5-4-3-0-3*v------------|

Pre-Chorus:
Both Guitars:
|---------------------------------------------------------------|
|---------------------------------------------------------------|
|---------------------------------------------------------------|
|---------------------------------------------------------------|
|---------------------------------------------------------------|
|-000-000-000-000---3p0-0-0--0-0---3p0-0-0--0-0-----------------|
PM... ... ... ...       . .  . .       . .  . . 
|---------------------------------------------------------------|
|---------------------------------------------------------------|
|---------------------------------------------------------------|
|---------------------------------------------------------------|
|------------------------------5---------(P.H)------------------|
|-000-000-000-000---3p0-0-0-/7---7-6-5-0-3*v--------------------|
PM... ... ... ...       . . 
|---------------------------------------------------------------|
|---------------------------------------------------------------|
|---------------------------------------------------------------|
|---------------------------------------------------------------|
|---------------------------------------------------------------|
|-000-000-000-000---3p0-0-0--0-0---3p0-0-0--0-0-----------------|
PM... ... ... ...       . .  . .       . .  . .  
|---------------------------------------------------------------|
|---------------------------------------------------------------|
|---------------------------------------------------------------|
|---------------------------------------------------------------|
|------------------------------5------------5-------------------|
|-000-000-000-000---3p0-0-0-/7---7-6-5-0-/7---7-6-5-0-----------|
PM... ... ... ...       . . 

Chorus:
Gtr.1:
|---------------------------------------------------------------|
|--------10--------------10---------------6------------6--------|
|---10--------10----10--------10------5-------5----5-------5----|
|-8----8----8-----8----8----8-------8---8---8----8---8---8------|
|---------------------------------------------------------------|
|---------------------------------------------------------------|
PM.    .    .     .    .    .       .   .   .    .   .   .

Gtr. 2:
|---------------------------------------------------------------|
|----------------10~-------\----------------------6~---------\--|
|----------------10~-------\----------------------5~---------\--|
|----------------8~--------\----------------------8~---------\--|
|----------------8~--------\----------------------5~---------\--|
|-8-8-8-8-8-8----8~--------\-------5-5-5-5-5-5----5~---------\--|
PM. . . . . .                      . . . . . .
-----
Gtr.1:
|--------------------0---------------------------0--------------|
|-------6----------------6----------6----------------6----------|
|---5-------5----5--------------5-------5----5------------------|
|-7---7---7----7---7---7------7---7---7----7---7---7------------|
|---------------------------------------------------------------|
|---------------------------------------------------------------|
PM.   .   .    .   .   .      .   .   .    .   .   .

Gtr.2:
|---------------------------------------------------------------|
|---------------------------------------------------------------|
|----------------7~--------\------------------7~----------\-----|
|----------------7~--------\------------------7~----------\-----|
|----------------5~--------\------------------5~----------\-----|
|-0-0-0-0-0-0-----------------0-0-0-0-0-0-----------------------|
PM. . . . . .                 . . . . . . 
Repeat Chorus once

Verse 2: Repeat Verse x2

Pre-Chorus 2: Repeat Pre-Chorus

Chorus 2: repeat Chorus x2

Interlude:(light dist. and delay) 
Tried to time Gtr.1&2
Gtr.1
|---------------------------------------------------------------|
|---------------------------------------------------------------|
|-15--15--15----15--15--15--15-----12--12-12--------------------|
|-0---0---0-----0---0---0---0------0---0--0---------------------|
|-13--13--13----13--13--13--13-----10--10-10--------------------|
|---------------------------------------------------------------|

Gtr.2
|---------------------------------------------------------------|
|---------------------------------------------------------------|
|-3-------3~----3---3-------3~--3--5--7---7-7--7----------------|
|-x-------x~----x---x-------x~--x--x--x---x-x--x----------------|
|-1-------1~----1---1-------1~--1--3--5---5-5--5----------------|
|---------------------------------------------------------------|
-----
|---------------------------------------------------------------|
|---------------------------------------------------------------|
|-14-15~-------14---14---14--14----14---14---14--14----14-------|
|-0--0---------0----0----0---0-----0----0----0---0-----0--------|
|-12-13~-------12---12---12--12----12---12---12--12----12-------|
|---------------------------------------------------------------|

|---------------------------------------------------------------|
|---------------------------------------------------------------|
|-7------7-7---7----7--------7--7--7----7----7-----7---7--------|
|-x------x-x---x----x--------x--x--x----x----x-----x---x--------|
|-5------5-5---5----5--------5--5--5----5----5-----5---5--------|
|---------------------------------------------------------------|
----
|---------------------------------------------------------------|
|---------------------------------------------------------------|
|-10----10--10--10-9---9---9--9---9~----------------------------|
|-0-----0---0---0--0---0---0--0---0~----------------------------|
|-8-----8---8---8--7---7---7--7---7~----------------------------|
|---------------------------------------------------------------|

|---------------------------------------------------------------|
|---------------------------------------------------------------|
|-7---------7---7--7--------7-7--7~-----------------------------|
|-0---------0---0--0--------0-0--0~-----------------------------|
|-0---------0---0--0--------0-0--0~-----------------------------|
|---------------------------------------------------------------|
Repeat all Interlude

Chorus 3:
Both guitars
|---------------------------------------------------------------|
|---------------------------------------------------------------|
|-------------10------------------------10----------------------|
|----------------8\7-----------------------8\7------------------|
|--------------------8\5p0---------------------8\5p0------------|
|-88888888888---------------55555555555-------------------------|
PM...........               ...........
|---------------------------------------------------------------|
|---------------------------------------------------------------|
|-------------10------------------------10-----10---------------|
|----------------8\7-----------------------8\7----8\7-----------|
|--------------------8\5p0--------------------------------------|
|-00000000000---------------00000000000-------------------------|
PM...........               ...........
Repeat Chorus 3 once

Breakdown:
Both Guitars:
|---------------------------------------------------------------|
|--------------10~---------------------6~-----------------------|
|--------------10~---------------------5~-----------------------|
|-------8~-----8~---------------8~-----8~-----------------------|
|-8------------8~---------5------------5~-----------------------|
|-8------------8~---------5------------5~-----------------------|

|-------------------0~----------------------0~------------------|
|--------------6~----------------------6~-----------------------|
|--------------5~----------------------5~-----------------------|
|-------7~-----7~---------------7~-----7~-----------------------|
|-5------------5~---------5------------5~-----------------------|
|-0------------0~---------0------------0~-----------------------|
Repeat Breakdown

Outro:
Gtr 1:
|---------------------------------------------------------------|
|---------------------------------------------------------------|
|-10------------------10-----10---------------------------------|
|----8\7-------(x6)------8\7----8\7--(x4)-----------------------|
|--------8\5p0--------------------------------------------------|
|---------------------------------------------------------------|

Gtr.2
(Comes in after 2nd repeat of Gtr.1)
|---------------------------------------------------------------|
|---------------------------------------------------------------|
|-14---------------------14-------14----------------------------|
|----12\10--------(x6)------12\10----12\10--(x4)----------------|
|----------12\8p0-----------------------------------------------|
|---------------------------------------------------------------|
-----
Gtr.1
|---------------------------------------------------------------|
|---------------------------------------------------------------|
|-10------10----------------------------------------------------|
|----8\7-----8\7------------------------------------------------|
|---------------------------------------------------------------|
|---------------------------------------------------------------|

Gtr.2
|---------------------------------------------------------------|
|---------------------------------------------------------------|
|-14------14----------------------------------------------------|
|----12\10---12\10----------------------------------------------|
|---------------------------------------------------------------|
|---------------------------------------------------------------|
Repeat until fade

===========================================================================
For You

(C G C F A D)



Key

   / = Slide Up
   \ = Slide Down
   ~ = Let Ring
   - = Palm Mute
   h = Hammer On
   p = Pull Off


#
#This Tab is Only for 1 guitar, havnt had time to find out the other guitar yet.
#

#
# Riff 1
#

D |-------------------------------------------|
A |-------------------------------------------|
F |-------------------------------------------|
C |----------------------------------65-------|  x2
G |--2h3p2---1h2p1---2h3p2---1h2p1---43-------|
C |-------321-----210-----321-----210---------|
          ---     ---     ---     ------------|


D |---------------------------------------|      |--------|
A |---------------------------------------|      |--------|
F |---------------------------------------|     |---------|
C |--4/5\4---3/4\3---4/5\4---3/4\3---65---|  x4  |--\7----|
G |--2/3\2---1/2\1---2/3\2---1/2\1---43---|     |--\5-----|
C |-------321-----210-----321-----210-----|     |---------|
          ---     ---     ---     ------------------------|

#
# Riff 2
#

D |----------------------------------------------|
A |----------------------------------------------|
F |----------------------------------------------|
C |-0-00-0---0-00-0---0-00-0--------/7-----------|
G |-0-00-0---0-00-0---0-00-0--------/5-----------|
C |-0-00-0---0-00-0---0-00-065013035-------------|
    - -- -   - -- -   - -- ---------


D |----------------------------------------------|
A |----------------------------------------------|
F |----------------------------------------------|
C |-0-00-0---0-00-0---0-00-0------0~-------------|
G |-0-00-0---0-00-0---0-00-0------0~-------------|
C |-0-00-0---0-00-0---0-00-06501-30~-------------|
    - -- -   - -- -   - -- ----- -


D |----------------------------------------------|
A |----------------------------------------------|
F |----------------------------------------------|
C |-00-0~---00-0~---00-0--------/7---------------|
G |-00-0~---00-0~---00-0--------/5---------------|
C |-00-0~---00-0~---00-065013035-----------------|
    -- -    -- -    -- ---------

D |----------------------------------------------|
A |----------------------------------------------|
F |----------------------------------------------|
C |-00-0~---00-0~---00-0-------------------------|
G |-00-0~---00-0~---00-0-------------------------|
C |-00-0~---00-0~---00-06501-3-------------------|
    -- -    -- -    -- ----- -

#
# Chorus
#

D |------------------------------------------------------------------|
A |------------------------------------------------------------------|
F |---------2---------------2---------------2------------------------|
C |---3-3--3-5-3h5p3--3--3-3-5-3h5p3--3--3-3-5-3h5-5\7-5-------------|   x2
G |-11-11-1---------00-00-0---------11-11-1--------3\5-3---------3h5-|
C |-----------------------------------------------------5-3-0h3h5----|
    -- -- -         -- -- -         -- -- -


D |-------------------|
A |-------------------|
F |-------------------|
C |-5\7-5-------------|   X4
G |-3\5-3---------3h5-|
C |------5-3-0h3h5----|

#
# Riff 1
#

D |---------------------------------------|      |--------|
A |---------------------------------------|      |--------|
F |---------------------------------------|     |---------|
C |--4/5\4---3/4\3---4/5\4---3/4\3---65---|  x4  |--\7----|
G |--2/3\2---1/2\1---2/3\2---1/2\1---43---|     |--\5-----|
C |-------321-----210-----321-----210-----|     |---------|
          ---     ---     ---     ------------------------|

#
# Riff 2
#

D |----------------------------------------------|
A |----------------------------------------------|
F |----------------------------------------------|
C |-0-00-0---0-00-0---0-00-0--------/7-----------|
G |-0-00-0---0-00-0---0-00-0--------/5-----------|
C |-0-00-0---0-00-0---0-00-065013035-------------|
    - -- -   - -- -   - -- ---------


D |----------------------------------------------|
A |----------------------------------------------|
F |----------------------------------------------|
C |-0-00-0---0-00-0---0-00-0------0~-------------|
G |-0-00-0---0-00-0---0-00-0------0~-------------|
C |-0-00-0---0-00-0---0-00-06501-30~-------------|
    - -- -   - -- -   - -- ----- -


D |----------------------------------------------|
A |----------------------------------------------|
F |----------------------------------------------|
C |-00-0~---00-0~---00-0--------/7---------------|
G |-00-0~---00-0~---00-0--------/5---------------|
C |-00-0~---00-0~---00-065013035-----------------|
    -- -    -- -    -- ---------


D |----------------------------------------------|
A |----------------------------------------------|
F |----------------------------------------------|
C |-00-0~---00-0~---00-0-------------------------|
G |-00-0~---00-0~---00-0-------------------------|
C |-00-0~---00-0~---00-06501-3-------------------|
    -- -    -- -    -- ----- -

#
# Chorus
#

D |------------------------------------------------------------------|
A |------------------------------------------------------------------|
F |---------2---------------2---------------2------------------------|
C |---3-3--3-5-3h5p3--3--3-3-5-3h5p3--3--3-3-5-3h5-5\7-5-------------|   x2
G |-11-11-1---------00-00-0---------11-11-1--------3\5-3---------3h5-|
C |-----------------------------------------------------5-3-0h3h5----|
    -- -- -         -- -- -         -- -- -


D |-------------------|
A |-------------------|
F |-------------------|
C |-5\7-5-------------|
G |-3\5-3---------3h5-|
C |------5-3-0h3h5----|


D |-------------------|
A |-------------------|
F |-------------------|
C |-5\7-5------12/----|
G |-3\5-3------12/----|
C |------5-3-0-12/----|


D |--------------------|        |---------|
A |--------------------|        |---------|
F |--------------------|        |---------|
C |-7-5----------------|   x3   |-7-5-1~--|
G |-5-3-5-3------3h5---|        |-5-3-1~--|
C |-----5-3-0h3h5------|        |-----1~--|
    - - - -                       - -

#
# Riff 3
#

D |--------------------------------------|
A |--------------------------------------|
F |--------------------------------------|
C |-11-------------55-------------101010-|
G |-11-------------55-------------8-8-8--|
C |-11-------------55--------------------|
    --             --

D |--------------------------------------------------|
A |--------------------------------------------------|
F |--------------------------------------------------|
C |-11---11---11---7/8 7-3---55---55---55-----101010-|  x4
G |-11---11---11---5/6-5-1---55---55---55-----8-8-8--|
C |-11---11---11-------------55---55---55------------|
    --   --   --             --   --   --

#
# Riff 4, I know that this bit is wrong but i cant
#         seem to hear it very well, so if any has
#         any suggestions, dont hesitate.
#

D |--------------------------|
A |--------------------------|
F |--------------------------|
C |-111111333333555555888888-|   x4
G |-111111333333555555888888-|
C |-111111333333555555888888-|

#
# Riff 1 Variation
#

D |-------------------------------------|
A |-------------------------------------|
F |-------------------------------------|
C |--4/5\4----4/5\4----4/5\4-----0~-----|
G |--2/3\2----2/3\2----2/3\2-----0~-----|
C |-------3210-----3210-----3210-0~-----|
          ----     ----     ------------|

#
# Chorus
#

D |------------------------------------------------------------------|
A |------------------------------------------------------------------|
F |---------2---------------2---------------2------------------------|
C |---3-3--3-5-3h5p3--3--3-3-5-3h5p3--3--3-3-5-3h5-5\7-5-------------|   x2
G |-11-11-1---------00-00-0---------11-11-1--------3\5-3---------3h5-|
C |-----------------------------------------------------5-3-0h3h5----|
    -- -- -         -- -- -         -- -- -


D |-------------------|
A |-------------------|
F |-------------------|
C |-5\7-5-------------|
G |-3\5-3---------3h5-|
C |------5-3-0h3h5----|


D |-------------------|
A |-------------------|
F |-------------------|
C |-5\7-5------12/----|
G |-3\5-3------12/----|
C |------5-3-0-12/----|


D |--------------------|        |---------|
A |--------------------|        |---------|
F |--------------------|        |---------|
C |-7-5----------------|   x3   |-7-5-1~--|
G |-5-3-5-3------3h5---|        |-5-3-1~--|
C |-----5-3-0h3h5------|        |-----1~--|
    - - - -


#
# There you go, if anybody thinks there is any mistakes or ways
# to improve it let me know and il update it, but that is what i
# make of the song, Enjoy!!!

===========================================================================
Still Beats Your Name



Tuning - Drop C (CGCFAD)

Intro
|-------------------------------------------------------------------|
|-------------------------------------------------------------------|
|-------------------------------------------------------------------|
|-------------------------------------------------------------------|
|-------------------------------------------------------------------|
|-12h13p12-0-0-3p0-0-0-12h13p12-0-0-8h10p8-0-0-12h13p12-0-0-3p0-0-0-|
PM         . .     . .          . .        . .          . .     . .

|--------------------|
|--------------------|
|--------------------|
|--------------------|
|--------------8--10-|
|-12h13p12-0-0-8--10-|
PM         . .

Verse
|------------------------------------------|
|------------------------------------------|
|------------------------------------------|
|------------------------------------------| Repeat 3 times
|------------------------------------------|
|-12h13p12-0-0-3p0-0-0-12h13p12-0-0-8h10p8-|
PM         . .     . .          . .

|---------------------------------|
|---------------------------------|
|-12p10p0-------------------------|
|---------12p10p0-----------------| Play fourth time
|-----------------12p10p0---------|
|-------------------------12p10p0-|

Pre-chorus 1 (Guitar 1)
|---------------------------------------------------------------------|
|---------------------------------------------------------------------|
|---------------------------------------------------------------------|
|---------------------------------------------------------------------|
|-5555555555555555-4444444444444444-----------------------------------|
|-----------------------------------7777777777777777-8888888888888888-|

Pre-chorus 1 (Guitar 2)
|---------------------------------------------------------------------------
|---------------------------------------------------------------------------
|---------------------------------------------------------------------------
|------7777-88888888-----7777-99998888------7777-88888888-88888888-77777777
|-5555---------------4444---------------------------------------------------
|--------------------------------------7777---------------------------------

Fill (Guitar 1)
|---------------------------------|
|---------------------------------|
|-12p10p0-------------------------|
|---------12p10p0-----------------|
|-----------------12p10p0---------|
|-------------------------12p10p0-|

Fill (Guitar 2)
|-------------------------|
|-------------------------|
|-8p7p0-------------------|
|-------8p7p0-------------|
|-------------8p7p0-------|
|-------------------8p7p0-|

Verse
|------------------------------------------|
|------------------------------------------|
|------------------------------------------|
|------------------------------------------| Repeat 3 times
|------------------------------------------|
|-12h13p12-0-0-3p0-0-0-12h13p12-0-0-8h10p8-|
PM         . .     . .          . .

|---------------------------------|
|---------------------------------|
|-12p10p0-------------------------|
|---------12p10p0-----------------| Play fourth time
|-----------------12p10p0---------|
|-------------------------12p10p0-|

Pre-chorus 1 (Guitar 1)
|---------------------------------------------------------------------|
|---------------------------------------------------------------------|
|---------------------------------------------------------------------|
|---------------------------------------------------------------------|
|-5555555555555555-4444444444444444-----------------------------------|
|-----------------------------------7777777777777777-8888888888888888-|

Pre-chorus 1 (Guitar 2) (play once)
|---------------------------------------------------------------------------
|---------------------------------------------------------------------------
|---------------------------------------------------------------------------
|------7777-88888888------7777-88888888------7777-88888888-88888888-77777777
|-5555---------------4444---------------------------------------------------
|---------------------------------------7777--------------------------------

Pre-chorus 1 (Guitar 2) (Cont)
|----------------------------|
|----------------------------|
|------9999-1010101010101010-|(10's not 1's and 0's)
|-7777-----------------------|(Play 3 times)
|----------------------------|
|----------------------------|

|---------------------------|
|---------------------------|
|-1010101010101010-99999999-|(10's not 1's and 0's)
|---------------------------|(Play the fourth time)
|---------------------------|
|---------------------------|

Chorus (Guitar 1)
|----------------------------------|
|----------------------------------|
|----------------------------------|
|-7p0-7p0-5h7-0-7-5h7-7-7h8p7------|
|-----------------------------10-8-|
|----------------------------------|

Chorus (Guitar 2) (strum chords)
|------------------------------------------------|
|------------------------------------------------|
|------------------------------------------------|
|---------------------10-10-10-10~---------------|
|-0-0-0-0~--3-3-3-3~--8--8--8--8~---10-10-10-10~-|
|-0-0-0-0~--3-3-3-3~--8--8--8--8~---10-10-10-10~-|

Chorus (Guitar 2) (Cont)
|------------------------------------------------|
|------------------------------------------------|
|------------------------------------------------|
|---------------------10-10-10-10~---------------|
|-0-0-0-0~--3-3-3-3~--8--8--8--8~---10-10-10-10~-|
|-0-0-0-0~--3-3-3-3~--8--8--8--8~---10-10-10-10~-|
PM  . .

Interlude (Both guitars play twice)
|-----------------------------------------------------------------------|
|-----------------------------------------------------------------------|
|---------------------------------------------------------9999-10101010-|
|-----10---8----------------------------------------------xxxx-x-x-x-x--|
|--------------12---10---8---10h12p10p8-----12---10---8---7777-8-8-8-8--|
|-8-8----8---8----8----8---8------------7-7----7----7---7---------------|
PM. .    .   .    .    .   .            . .    .    .   .

Interlude (Guitar 2) (Played the last two times)
|-----------------------------------------------------------------------|
|-----------------------------------------------------------------------|
|-----8---7---------------------------------------------9999-10101010---|
|-------------10----8----7---8h10p8p7-----10---8----7---xxxx-x-x-x-x----|
|-------------------------------------------------------7777-8-8-8-8----|
|-8-8---8---8-----8----8---8----------0-0----0----0---0-----------------|
PM. .    .   .    .    .   .          . .    .    .   .

Interlude (Guitar 2) (Played when Adam stars singing)
|-------------------------------------------|
|-------------------------------------------|
|-----------------------------9999-10101010-|
|---------10-10-10-10---------xxxx-x-x-x-x--|
|-8-8-8-8-8--8--8--8--7-7-7-7-7777-8-8-8-8--|
|-8-8-8-8-8--8--8--8--7-7-7-7---------------|

|-------------------------------------------|
|-------------------------------------------|
|-----------------------------9999-10101010-|
|---------10-10-10-10---------xxxx-x-x-x-x--|
|-8-8-8-8-8--8--8--8--0-0-0-0-7777-8-8-8-8--|
|-8-8-8-8-8--8--8--8--0-0-0-0---------------|

Repeat verse
Repeat chorus

==============================================================================
Eye of The Storm

Drop C Tuning



Intro:

 Gtr. I:  (00:00)
|---------------------------------------------------|
|---------------------------------------------------|
|---------------------------------------------------|
|--------------------------------------------0~~~~--|
|---0--------0--------0------0------0--/12\--0~~~~--|
|---0--------0--------0------0------0--/12\--0~~~~--|
pm  .        .        .      .      .

|---------------------------------------------------|
|---------------------------------------------------|
|-----------------------------------------7---------|
|~~~~~~~~~~~~~~~~~~~~~~~~~~~~~~~~~~~~~~-------------|
|~~~~~~~~~~~~~~~~~~~~~~~~~~~~~~~~~~~~~~------0-0-0--|
|~~~~~~~~~~~~~~~~~~~~~~~~~~~~~~~~~~~~~~------0-0-0--|
                                             . . .

 Gtr. II:  (00:00)
|-----------------------------------------------------|
|-----------------------------------------------------|
|-----------------------------------------------------|
|------------3h5--------------------------------------|
|---3h5---------------3h5----5h6------3h5------1h3----|
|-------0000-----0000-----00-----0000-----0000--------|
pm      ....     ....     ..     ....     ....

|---------------------------------------------------|
|---------------------------------------------------|
|-----------------------------------------7---------|
|-------------3h5-----------------------------------|
|----3h5---------------3h5----5h6------------0-0-0--|
|-00-----0000-----0000-----00-----000000-----0-0-0--|
  ..     ....     ....     ..     ......     . . .


Verse: x2

 Gtrs. I & II  (00:06)
|-----------------------------------------------------|
|-----------------------------------------------------|
|-----------------------------------------------------|
|------------3h5--------------------------------------|
|---3h5---------------3h5----5h6------3h5------1h3----|
|-------0000-----0000-----00-----0000-----0000--------|
pm      ....     ....     ..     ....     ....

|---------------------------------------------------|
|---------------------------------------------------|
|-----------------------------------------7---------|
|-------------3h5-----------------------------------|
|----3h5---------------3h5----5h6------------0-0-0--|
|-00-----0000-----0000-----00-----000000-----0-0-0--|
  ..     ....     ....     ..     ......     . . .


Pre-Chorus:

 Gtr. I: x4
 Gtr.II: x2  (00:19)
|-------------------------------------------------------------|
|-------------------------------------------------------------|
|--7\\\-------------------------------------------------------|
|--7\\\---------------7---------10\\\---------------7---------|
|--5\\\---000-------007-000-00---8\\\---000-------007-000-00--|
|---------000-------007-000-00---8\\\---000-------007-000-00--|
pm        ...       ..  ... ..          ...       ..  ... ..


 Gtr.II: x2  (00:32)          (This is all could I really hear)
|-------------------------------------------------------------|
|-------------------------------------------------------------|
|-------------------------------------------------------------|
|-------------------------------------------------------------|
|--8-----7-----8-----7----------8-----7-----8-----7-----------|
|---75757-75757-75757-7575757----75757-75757-75757-7575757----|


Verse: x2  (00:44)


Chorus:

 Gtr. I:  (00:56)
|-----------------------------------------------------|
|-----------------------------------------------------|
|-----------------------------------------------------|
|--------------------5-----------0~~------------------|
|--5-----7-----8-----------5-7-8-0~~-00000000000000---|
|----8-8---8-8---8-8---8-8-------0~~-00000000000000---|
pm   . .   . .   . .   . .           ..............

                                         1st time|           2nd time|
|-------------------------------|----------------|-------------------|
|-------------------------------|----------------|-------------------|
|-------------------------------|----------------|-------------------|
|--8---8---8----10----10-----0~~|----------------|--------1010101010-|
|--8-8-8-8-8-8--10-10-10-10--0~~|-00000000000000-|-000000-1010101010-|
|--8-8-8-8-8-8--10-10-10-10--0~~|-00000000000000-|-000000-1010101010-|
pm   .   .   .      .     .       ..............   ......


 Gtr. II:  (00:56)
|-------------------------------------------------------|
|-------------------------------------------------------|
|-------------------------------------------------------|
|----------------------8-------------0~~----------------|
|--8-----10-----12-----------8-10-12-0~~-00000000000000-|
|----8-8----8-8----8-8---8-8---------0~~-00000000000000-|
pm   . .    . .    . .   . .             ..............

                                         1st time|           2nd time|
|--8--------------8-------------|----------------|-------------------|
|-------6---5---------6--5------|----------------|-------------------|
|-------------------------------|----------------|-------------------|
|----------------------------0~~|----------------|--------1010101010-|
|----------------------------0~~|-00000000000000-|-000000-1010101010-|
|----------------------------0~~|-00000000000000-|-000000-1010101010-|
pm                                ..............   ......


Pre-Chorus:  (01:32)


Chorus:           2nd time ends a little different from the 1st Chorus-|
                                                                       |
 Gtr. I:  (01:46)                                                      |
|-----------------------------------------------------|                |
|-----------------------------------------------------|                |
|-----------------------------------------------------|                |
|--------------------5-----------0~~------------------|                |
|--5-----7-----8-----------5-7-8-0~~-00000000000000---|                |
|----8-8---8-8---8-8---8-8-------0~~-00000000000000---|                |
pm   . .   . .   . .   . .           ..............                    |
                                                                       |
                                         1st time|        2nd time|    |
|-------------------------------|----------------|----------------|    |
|-------------------------------|----------------|----------------|    |
|-------------------------------|----------------|----------------| <--|
|--8---8---8----10----10-----0~~|----------------|----------------|    |
|--8-8-8-8-8-8--10-10-10-10--0~~|-00000000000000-|-00000000000000-|    |
|--8-8-8-8-8-8--10-10-10-10--0~~|-00000000000000-|-00000000000000-|    |
pm   .   .   .      .     .       ..............   ..............      |
                                                                       |
                                                                       |
 Gtr. II:  (01:46)                                                     |
|-------------------------------------------------------|              |
|-------------------------------------------------------|              |
|-------------------------------------------------------|              |
|----------------------8-------------0~~----------------|              |
|--8-----10-----12-----------8-10-12-0~~-00000000000000-|              |
|----8-8----8-8----8-8---8-8---------0~~-00000000000000-|              |
pm   . .    . .    . .   . .             ..............                |
                                                                       |
                                         1st time|       2nd time|     |
|--8--------------8-------------|----------------|---------------|    ---|
|-------6---5---------6--5------|----------------|---------------|    ---|
|-------------------------------|----------------|---------------|    ---|
|----------------------------0~~|----------------|---------------| <-----|
|----------------------------0~~|-00000000000000-|-0000000000000---------|
|----------------------------0~~|-00000000000000-|-0000000000000---------|
pm                                ..............   .............


Breakdown: Bass play

 Gtrs. I & II:  (02:11)
|----------------------------------------------------|
|----------------------------------------------------|
|----------------------------------------------------|
|--0~~~~~~~~~~~~~~~~~~~~~~~~~~~~~~~~~~~~~~~~~~~~~~~~-|
|--0~~~~(let ring)~~~~~~~~~~~~~~~~~~~~~~~~~~~~~~~~~~-|
|--0~~~~~~~~~~~~~~~~~~~~~~~~~~~~~~~~~~~~~~~~~~~~~~~~-|

|----------------------------------------------------|
|----------------------------------------------------|
|--------------------------------------------7-------|
|--~~~~~~~~~~~~~~~~~~~~~~~~~~~~~~~~------------------|
|--~~~~~~~~~~~~~~~~~~~~~~~~~~~~~~~~12\\\\\-----0-0-0-|
|--~~~~~~~~~~~~~~~~~~~~~~~~~~~~~~~~12\\\\\-----0-0-0-|
pm                                             . . .


Breakdown: Guitars Join

 Gtr. I: x4
 Gtr.II: x2  (2:24)
|----------------------------------------------------------------|
|----------------------------------------------------------------|
|----------------------------------------------------------------|
|----5/7---------5/7---7/8----------5/7---------5/7---3/5--------|
|----3/5---3h5---3/5---5/6--0000----3/5---3h5---3/5---1/3-1111---|
|--0-----0-3h5-0-----0------0000--0-----0-3h5-0-----0-----1111---|
pm .     .     .     .      ....  .     .     .     .     ....


 Gtr.II: x2  (02:37)
|----------------------------------------------------------------|
|----------------------------------------------------------------|
|----------------------------------------------------------------|
|----------------------------------------------------------------|
|--0-0-0-0-0-0-0-0-0-0-0-0-0-0-0-0-0-0-0-0-0-0-0-5-5-5-5-1-1-1-1-|
|--0-0-0-0-0-0-0-0-0-0-0-0-0-0-0-0-0-0-0-0-0-0-0-5-5-5-5-1-1-1-1-|
pm . . . . . . . . . . . . . . . . . . . . . . . . . . . . . . .


Chorus: Revisited

 Gtr. I:  (02:50)
|--------------------------------------------------------------|
|--------------------------------------------------------------|
|--------------------------------------------------------------|
|----------------7h8--7h8p7----------------0~~-----------------|
|--5-----7---8--------------10-8-10-8-7----0~~-00000000000000--|
|----8-8---8---8------------------------10-0~~-00000000000000--|
pm   . .   .   .                               ..............
                                                                            |--|
|------------------------------------------------------------------------------|
|------------------------------------------------------------------------------|
|--8---8---8----10----10-----0~~-----------------------------------------------|
|--8-8-8-8-8-8--10-10-10-10--0~~--00000000000000-------------------------------|
|--8-8-8-8-8-8--10-10-10-10--0~~--00000000000000-------------------------------|
pm   .   .   .      .     .       ..............

|-----------------------------------------------------|
|-----------------------------------------------------|
|-----------------------------------------------------|
|--------------------5-----------0~~------------------|
|--5-----7-----8-----------5-7-8-0~~-00000000000000---|
|----8-8---8-8---8-8---8-8-------0~~-00000000000000---|
pm   . .   . .   . .   . .           ..............

|--------------------------------------------------------|
|--------------------------------------------------------|
|--------------------------------------------------------|
|--8---8---8----10----10-----0~~---------8-7-5-3-7-5-3-2-|
|--8-8-8-8-8-8--10-10-10-10--0~~--000000-8-7-5-3-7-5-3-2-|
|--8-8-8-8-8-8--10-10-10-10--0~~--000000-8-7-5-3-7-5-3-2-|
pm   .   .   .      .     .       ...... . . . . . . . .

 Gtr.II:  (02:50)
|---------------------------------------------------------------------|
|---------------------------------------------------------------------|
|---------------------------------------------------------------------|
|-----------------10h12--10h12p10------------------0~~----------------|
|--8-----10---12------------------13-12-13-12-10-7-0~~-00000000000000-|
|----8-8----8--------------------------------------0~~-00000000000000-|
pm   . .    .                                          ..............

|--8--------------8------------------------------|
|-------6---5---------6--5-----------------------|
|------------------------------------------------|
|----------------------------0~~-----------------|
|----------------------------0~~--00000000000000-|
|----------------------------0~~--00000000000000-|
pm                                ..............

|-------------------------------------------------------|
|-------------------------------------------------------|
|-------------------------------------------------------|
|----------------------8-------------0~~----------------|
|--8-----10-----12-----------8-10-12-0~~-00000000000000-|
|----8-8----8-8----8-8---8-8---------0~~-00000000000000-|
pm   . .    . .    . .   . .             ..............

|--8--------------8--------------------------------------|
|-------6---5---------6--5-------------------------------|
|--------------------------------------------------------|
|----------------------------0~~---------8-7-5-3-7-5-3-2-|
|----------------------------0~~--000000-8-7-5-3-7-5-3-2-|
|----------------------------0~~--000000-8-7-5-3-7-5-3-2-|
pm                                ...... . . . . . . . .

 *****Breakdown but a little slower******
 Gtrs. I & II: (03:13)
|----------------------------------------------------------------|
|----------------------------------------------------------------|
|----------------------------------------------------------------|
|----5/7---------5/7---7/8----------5/7---------5/7---3/5--------|
|----3/5---3h5---3/5---5/6--0000----3/5---3h5---3/5---1/3-1111---|
|--0-----0-3h5-0-----0------0000--0-----0-3h5-0-----0-----1111---|
pm .     .     .     .      ....  .     .     .     .     ....

|-----------------------------------------------------------------|
|-----------------------------------------------------------------|
|-----------------------------------------------------------------|
|----5/7---------5/7---7/8----------5/7----------8-7-5-3-7-5-3-2--|
|----3/5---3h5---3/5---5/6--0000----3/5---3h5----8-7-5-3-7-5-3-2--|
|--0-----0-3h5-0-----0------0000--0-----0-3h5-00-8-7-5-3-7-5-3-2--|
pm .     .     .     .      ....  .     .     .. . . . . . . . .

Outro:

 Gtrs. I & II: x2  (03:31)
|------------------------------------------------------------------|
|------------------------------------------------------------------|
|------------------------------------------------------------------|
|------------------------------------------------------------------|
|-0-0-0-0-0-0-0-0-0-0-0-0-0-0-0-0-0-0-0-0-0-0-0-0-5-5-5-5-1-1-1-1--|
|-0-0-0-0-0-0-0-0-0-0-0-0-0-0-0-0-0-0-0-0-0-0-0-0-5-5-5-5-1-1-1-1--|
pm. . . . . . . . . . . . . . . . . . . . . . . . . . . . . . . .
|--------------------------------------------|
|--------------------------------------------|
|--------------------------------------------|
|--8--7--5--3---7---5---3---2---0~~~---------|
|--8--7--5--3---7---5---3---2---0~~~---------|
|--8--7--5--3---7---5---3---2---0~~~---------|
pm .  .  .  .   .   .   .   .


===============================================================================
Break The Silence
===============================================================================
Desperate Times

Tuning: Drop C

Guitar 1
D|-------------------------------------------------------------------------|
A|-------------------------------------------------------------------------|
F|-------------------------------------------------------------------------|
C|-0~---------------------0~---------------5-------------------------------|
G|-0~---------------------0~---------------5-------------------------------|
C|-0~---------------------0~---------------5-------------------------------|

Guitar 2
D|-------------------------------------------------------------------------|
A|-------------------------------------------------------------------------|
F|-7----------------------9/10~---------12/14-14-14-14---------------------|
C|-x----------------------x--x~---------x--x--x--x--x-(bend last few notes)|
G|-5----------------------7/-8~---------10/12-12-12-12---------------------|
C|-------------------------------------------------------------------------|


Both Guitars
D|----------------------------------------------------------------|
A|----------------------------------------------------------------|
F|-------5-----5-5---5-5---5---5-5--------5-----5-5---------------|
C|-0-----5-----5-5---5-5---5---5-5--3-----5-----5-5-3-3/5-5-5-5\3-|
G|-0-----5-----5-5---5-5---5---5-5--3-----5-----5-5-3-3/5-5-5-5\3-|
C|-0-0-0---0-0-----0-----0---0------3-3-3---3-3-----3-3/5-5-5-5\3-|
     . .   . .     .     .   .        . .   . .

Both Guitars
D|---------------|
A|---------------|
F|---------------|
C|--3-3-x-3/5-5--|(4th ending)
G|--3-3-x-3/5-5--|
C|--3-3-x-3/5-5--|


Guitar 1
D|------------------------------------------------------------------------|
A|------------------------------------------------------------------------|
F|------------------------------------------------------------------------|
C|-7-------------------0------5----5-----5---7---------------0------5-----|
G|-7-------------------0------3----3-2-3-5---7---------------0------3-----|
C|-7-------------------0----0-3----3-2-3-5---7---------------0----0-3-----|
                            .        . .                          .
Guitar 2 (tremelo pick)
D|------------------------------------------------------------------------|
A|------------------------------------------------------------------------|
F|-16------17----------16-----12---------17--16-----17-------16-----12----|
C|-x-------x-----------x------x----------x---x------x--------x------x-----| 
G|-14------15----------14-----10---------15--14-----15-------14-----10----|
C|------------------------------------------------------------------------|


Guitar 1
D|-------------------------------------------------------------------|
A|-------------------------------------------------------------------|
F|-------------------------------------------------------------------|
C|-0---------------------------------3-----------------3-3/5-5-5-5\3-| 
G|-0---------------------------------3-----------------3-3/5-5-5-5\3-|
C|-0---------------------------------3-----------------3-3/5-5-5-5\3-|
   .                                 .

                                                   D|----------------|
                                                   A|----------------|
                                                   F|----------------|
                                      (2nd ending) C|--3-3-x-5/7-7\--|
                                                   G|--3-3-x-3/5-5\--|
                                                   C|--3-3-x---------|

Guitar 2
D|-------------------------------------------------------------------|
A|-------------------------------------------------------------------|
F|-----9-----5-----9-----5-----5---------9-----5-----9-----5-----5---|
C|-5-7---5-7---5-7---5-7---5-9---9---5-7---5-7---5-7---5-7---5-9---9-|
G|-------------------------------------------------------------------|
C|-------------------------------------------------------------------|
   . .   . .   . .   . .   . .       . .   . .   . .   . .   . .


Guitar 1
D|----------------------------------------------------------------|
A|----------------------------------------------------------------|
F|-------5-----5-5---5-5---5---5-5--------5-----5-5---------------|
C|-0-----5-----5-5---5-5---5---5-5--3-----5-----5-5-3-3/5-5-5-5\3-|
G|-0-----5-----5-5---5-5---5---5-5--3-----5-----5-5-3-3/5-5-5-5\3-|
C|-0-0-0---0-0-----0-----0---0------3-3-3---3-3-----3-3/5-5-5-5\3-|
     . .   . .     .     .   .        . .   . .

D|---------------|
A|---------------|
F|---------------|
C|--3-3-x-3/5-5--|(2nd ending)
G|--3-3-x-3/5-5--|
C|--3-3-x-3/5-5--|

Guitar 2
D|----------------------------------------------------------------|
A|----------------------------------------------------------------|
F|----------------------------------------------------------------|
C|-0--------------------------------3---------------3-3/5-5-5-5\3-|
G|-0--------------------------------3---------------3-3/5-5-5-5\3-|
C|-0--------------------------------3---------------3-3/5-5-5-5\3-|
   .                                .

D|---------------|
A|---------------|
F|---------------|
C|--3-3-x-3/5-5--|(2nd ending)
G|--3-3-x-3/5-5--|
C|--3-3-x-3/5-5--|


Guitar 1
D|------------------------------------------------------------------------|
A|------------------------------------------------------------------------|
F|------------------------------------------------------------------------|
C|-7-------------------0------5----5-----5---7---------------0------5-----|
G|-7-------------------0------3----3-2-3-5---7---------------0------3-----|
C|-7-------------------0----0-3----3-2-3-5---7---------------0----0-3-----|
                            .        . .                          .
Guitar 2 (tremelo pick)
D|------------------------------------------------------------------------|
A|------------------------------------------------------------------------|
F|-16------17----------16-----12---------17--16-----17-------16-----12----|
C|-x-------x-----------x------x----------x---x------x--------x------x-----| 
G|-14------15----------14-----10---------15--14-----15-------14-----10----|
C|------------------------------------------------------------------------|


Both Guitars
D|-------------------------------------------------------------------------|
A|-------------------------------------------------------------------------|
F|-------------------------------------------------------------------------|
C|-0~-----------------------------0~----------------------0----------------|
G|-0~-----------------------------0~----------------------0-(x16)----------|
C|-0~-----------------------------0~----------------------0----------------|
  
                                                        . 
Both Guitars
D|-------------------------------------------------------------------------|
A|-------------------------------------------------------------------------|
F|-------------------------------------------------------------------------|
C|-5\3---3-------3---2-------------5\3---3-------3---2---------------------|
G|-3\1---1-1-0---1---0---3---5-----3\1---1-1-0---1---0---3-----3*----------|
C|-----0---1-0-0---0---0-3-0-5-0-0-----0---1-0-0---0---0-3-0-0-------------|
       .       .   .   .   .   . .     .       .   .   .   . .


Both Guitars
D|------------------------------------------------------|
A|--12---15------10---13--10---12--13-12----10----------|
F|--12-------12--12------------10--------9-----9--------|
C|--12-----------10------------10--------7--------------|
G|------------------------------------------------------|
C|------------------------------------------------------|

D|------------------------------------------------------|
A|------------------------------------------------------|
F|--9-----9-----7-----7-----4-----4-----5-----5---------|
C|--7-----7-----7-----7-----2-----2-----5-----5---------|
G|----0-0---0-0---0-0---0-0---0-0---0-0---0-0---0-0-----|
C|------------------------------------------------------|

D|------------------------------------------------------|
A|--12---15------10---13--10---12--13-12----10----------|
F|--12-------12--12------------10--------9-----9--------|
C|--12-----------10------------10--------7--------------|
G|------------------------------------------------------|
C|------------------------------------------------------|

D|------------------------------------------------------|
A|------------------------------------------------------|
F|--9-----9-----7-----7-----4-----4-----5-----5---------|
C|--7-----7-----7-----7-----2-----2-----5-----5---------|
G|----0-0---0-0---0-0---0-0---0-0---0-0---0-0---0-0-----|
C|------------------------------------------------------|

D|------------------------------------------------------|
A|--8-----8-----5-----5---------------------------------|
F|--9-----9-----5-----5-----4-----4-----5-----5---------|
C|--7-----7-----3-----3-----2-----2-----5-----5---------|
G|----0-0---0-0---0-0---0-0---0-0---0-0---0-0---0-0-----|
C|------------------------------------------------------|

D|---------------|
A|---------------|
F|---------------|
C|--3-3-x-3/5-5--|
G|--3-3-x-3/5-5--|
C|--3-3-x-3/5-5--|


Guitar 1
D|------------------------------------------------------------------------|
A|------------------------------------------------------------------------|
F|------------------------------------------------------------------------|
C|-7-------------------0------5----5-----5---7---------------0------5-----|
G|-7-------------------0------3----3-2-3-5---7---------------0------3-----|
C|-7-------------------0----0-3----3-2-3-5---7---------------0----0-3-----|
                            .        . .                          .
Guitar 2 (tremelo pick)
D|------------------------------------------------------------------------|
A|------------------------------------------------------------------------|
F|-16------17----------16-----12---------17--16-----17-------16-----12----|
C|-x-------x-----------x------x----------x---x------x--------x------x-----| 
G|-14------15----------14-----10---------15--14-----15-------14-----10----|
C|------------------------------------------------------------------------|

| /  slide up
| \  slide down
| *  pinch harmonic
| h  hammer-on
| p  pull-off
| ~  vibrato
| +  harmonic
| x  Mute note

===============================================================================
Reject Yourself


Drop C

Intro Guitar 1
D ------------------------------------------------------------------|
A ------------------------------------------------------------------|
F ------------------------------------------------------------------|
C -----7-6------------------7-6------------------7-6----------------|
G --4-4-4-4-7h9p7-4h7p0--4-4-4-4-7h9p7-4h7p0--4-4-4-4-7h9p7-4h7p0---|
C ------------------------------------------------------------------|
    . . . .              . . . .              . . . .

  ---------------------|
  ----------676--------|
  -----9---9---9-7-6---|
  --6-7-6-7----------9-|  (played after 3 of the above riff) x2
  ---------------------|
  ---------------------|

  -----------------------------------------------------------------|
  -----------------------------------------------------------------|
  -----------------------------------------------------------------|
  --7-6------------------7-6------------------7-6------------------|
  -4-4-4-4-7h9p7-4h7p0--4-4-4-4-7h9p7-4h7p0--4-4-4-4-7h9p7-4h7p0---|
  -----------------------------------------------------------------|
    . . . .              . . . .              . . . .

  --------------------------|
  --------------------------|
  -676----------------------|
  ----9-7-6---676-----------|
  ----------9-----9-7-5-4---|
  --------------------------|

  Riff 1

  ------------------------------------------------|
  ------------------------------------------------|
  ------------------------------------------------|
  -------7-6-7---------------7-6-7----7-6-4-------| x3
  ------------------7-5-4-------------------------|
  ---44-4-4-4---44-4-4-4---77-7-7---77-7-7-7------|

  ------------------------------------------------|
  ------------------------------------------------|
  ------------------------------------------------|
  -------7-6-7---------------7-6-7-------7--77----| (fourth time round this
  ------------------7-5-4----------------7--77----|  is played instead)
  ---44-4-4-4---44-4-4-4---77-7-7---77-7-7--77----|

  ----------------------------------------|
  --------------111111119999777766666666--|
  --444466667777--------------------------| (This is played once before riff
  ----------------------------------------|  one is repeated again)
  ----------------------------------------|

  ------------------------------------------------|
  ------------------------------------------------|
  ------------------------------------------------|
  -------7-6-7---------------7-6-7----7-6-4-------| played once
  ------------------7-5-4-------------------------|
  ---44-4-4-4---44-4-4-4---77-7-7---77-7-7-7------|

  ------------------------------------------------|
  ------------------------------------------------|
  ------------------------------------------------|
  -------7-6-7---------------7-6-7-------7--77----|
  ------------------7-5-4----------------7--77----|
  ---44-4-4-4---44-4-4-4---77-7-7---77-7-7--77----|

  Chorus
  ----------------------------------------------------------------|
  ----------------------------------------------------------------|
  ---7-6-9~--------------------------7-6-9~-----------------------|
  --7-7-7------4--------------------7-7-7------4-----4-----2----2-| once
  -------------4--44444444----5s7~-------------4--44-4--44-2-22-2-|
  -------------4--44444444-467-----------------4--44-4--44-2-22-2-|
                  ........

  ----------------------------------------------------------------|
  ----------------------------------------------------------------|
  ---7-6-9~--------------------------7-6-9~-----------------------|
  --7-7-7------4--------------------7-7-7------4-----4----7-6-----| (second
  -------------4--44444444----5s7~-------------4--44-4--------7---|  time)
  -------------4--44444444-467-----------------4--44-4--44-4-4----|


  This is all I know so far, it's only one guitar and sounds pretty much
  correct. I'ts repeated again after this, and most of the song is based
  these areas in the tab so you might be able to work it out.



            
            
Suggest correction
Creating personal tab
Creating personal tab
You can edit any tab online and save it as your Personal.

You can edit, replace or remove any tab part or add personal notes – all changes will be seen only by you.

Personal tabs can be accessed anytime from any device, even offline.
Learn more »
comments
print report bad tab
7 comments total. Showing first comments.
+4 reply
valley boy 40 Apr 08, 2008 03:37 PM

i posesd it so that it would be easier to find them. incase you didn't notice ALBUM TABS ARE ON THE FIRST PAGE OF TABS FOR THE BAND!!

0 reply
rongold360 150 Aug 01, 2009 10:31 AM

good job-ish

0 reply
aroz1 61 Feb 21, 2010 07:32 AM

so where's the tab?

guest
You may want to rate the tab now too:
select rating
Wanna post a correction for this tab? Suggest correction