Oops, an error
Loading. Please wait.

Beyond The Flames bass

version 1
version 1

Whole song

Interactive

811 views 1 this week
no commentswrite comment
1 2 3 4 5
3 more votes to show rating
add to favorites
×
Save as Personal and add changes to this tab that will be seen only by you. Learn more ›
×
You can save this tab as Personal to edit and correct it or add notes. All changes will be seen only by you. Learn more »
launch autoscroll
font size
0
reset
guitar tuner
edit
Autoscroll
slow
fast
+/-
esc
set tempo
stop
Title: Beyond The Flames
Artist: Killswitch Engage
Album: Disarm The Descent
Words: Killswitch Engage
Music: Killswitch Engage
Copyright: Killswitch Engage
Tempo = 108
Mike (Bass)

Legend
L - tied note
x - dead note
h - hammer on/pull off
b - bend
s - slide
~ - vibrato
g - ghost note
> - accentuated note
t - trill
M - palm mute
. - staccato
P - popping (bass)
S - slapping (bass)
+ - tapping
W - wide vibrato
< - fade in
w - whammy bar
= - tremolo picking
v - brush up
^ - brush down
V - pick stroke up
n - pick stroke down


F |----------------------------------------------------------------------------|
C |----------------------------------------------------------------------------|
G |--0-----0M-0M-0M----------0M----0M----0M----------0M----------0M----0M------|
C |----------------------------------------------------------------------------|


----------------------------------------|
----------------------------------------|
--0M-7--0M-12-0M-0M-0M-3--0M------------|
-----------------------------3--3--3----|


----------------------------------------------------------------------------|
----------------------------------------------------------------------------|
--0-----0M-0M-0M----------0M----0M----0M----------0M----------0M----0M------|
----------------------------------------------------------------------------|


----------------------------------------|
----------------------------------------|
--8M-------8M-------10-10---------------|
----------------------------------------|


----------------------------------------------------------------------------|
----------------------------------------------------------------------------|
--0-----0M-0M-0M----------0M----0M----0M----------0M----------0M----0M------|
----------------------------------------------------------------------------|


----------------------------------------|
----------------------------------------|
--0M-7--0M-12-0M-0M-0M-3--0M------------|
-----------------------------3--3--3----|


----------------------------------------------------------------------------|
----------------------------------------------------------------------------|
--0-----0M-0M-0M----------0M----0M----0M----------0M----------0M----0M------|
----------------------------------------------------------------------------|


----------------------------------------|
----------------------------------------|
--8M-------8M-------10-10---------------|
----------------------------------------|


----------------------------------------------------------------------------|
----------------------------------------------------------------------------|
--0-----0M-0M-0M----------0M----0M----0M----------0M----------0M----0M------|
----------------------------------------------------------------------------|


----------------------------------------|
----------------------------------------|
--0M-7--0M-12-0M-0M-0M-3--0M------------|
-----------------------------3--3--3----|


----------------------------------------------------------------------------|
----------------------------------------------------------------------------|
--0-----0M-0M-0M----------0M----0M----0M----------0M----------0M----0M------|
----------------------------------------------------------------------------|


----------------------------------------|
----------------------------------------|
--8M-------8M-------10-10---------------|
----------------------------------------|


----------------------------------------------------------------------------|
----------------------------------------------------------------------------|
--0-----0M-0M-0M----------0M----0M----0M----------0M----------0M----0M------|
----------------------------------------------------------------------------|


----------------------------------------|
----------------------------------------|
--0M-7--0M-12-0M-0M-0M-3--0M------------|
-----------------------------3--3--3----|


----------------------------------------------------------------------------|
----------------------------------------------------------------------------|
--0-----0M-0M-0M----------0M----0M----0M----------0M----------0M----0M------|
----------------------------------------------------------------------------|


----------------------------------------|
----------------------------------------|
--8M-------8M-------10-10---------------|
----------------------------------------|


----------------------------------------------------------------------------|
----------------------------------------------------------------------------|
--------------------------------------------7-----------7-----8-----8-------|
--0L----------0-----0M----0M-0M-0M----0M----------0M------------------------|


----------------------------------------------------------------------------|
----------------------------------------------------------------------------|
----------------------------------------------------------------------------|
--3L----------3-----3M----3M-3M-3M----3M----------3M------------------------|


----------------------------------------------------------------------------|
----------------------------------------------------------------------------|
--------------------------------------------------------------10------------|
--7L----------7-----7M----7M-7M-7M----------0M----------0M----------0M------|


----------------------------------------|
----------------------------------------|
--7-----------------10----7-------------|
-----0M----0M----0M----0M----0M-5-------|


----------------------------------------------------------------------------|
----------------------------------------------------------------------------|
----------------------------------------------------------------------------|
--3L----------3-----3M----3M-3M-3M----3M----------3M------------------------|


----------------------------------------------------------------------------|
----------------------------------------------------------------------------|
----------------------------------------------------------------------------|
--5L----------5-----5M----5M-5M-5M----5M----------5M------------------------|


----------------------------------------------------------------------------|
----------------------------------------------------------------------------|
--------------------------------------------------------------10------------|
--7L----------7-----7M----7M-7M-7M----------0M----------0M----------0M------|


----------------------------------------|-------------|----------------------|
----------------------------------------|-------------|----------------------|
--7-------------------------------------|-------------|----------------------|
-----0M----0M-------5L----5--12L---12---|--0L----0L---|--0L----0--2L----2----|


-------------|----------------------|-------------|----------------------|
-------------|----------------------|-------------|----------------------|
-------------|----------------------|-------------|----------------------|
--3L----3L---|--3L----3--5L----5----|--7L----7L---|--7L----7--2L----2----|


-------------|-------------|
-------------|-------------|
-------------|-------------|
--3L----3----|--5L----5----|


----------------------------------------------------------------------------|
----------------------------------------------------------------------------|
--0-----0M-0M-0M----------0M----0M----0M----------0M----------0M----0M------|
----------------------------------------------------------------------------|


----------------------------------------|
----------------------------------------|
--0M-7--0M-12-0M-0M-0M-3--0M------------|
-----------------------------3--3--3----|


----------------------------------------------------------------------------|
----------------------------------------------------------------------------|
--0-----0M-0M-0M----------0M----0M----0M----------0M----------0M----0M------|
----------------------------------------------------------------------------|


----------------------------------------|
----------------------------------------|
--8M-------8M-------10-10---------------|
----------------------------------------|


----------------------------------------------------------------------------|
----------------------------------------------------------------------------|
--0-----0M-0M-0M----------0M----0M----0M----------0M----------0M----0M------|
----------------------------------------------------------------------------|


----------------------------------------|
----------------------------------------|
--0M-7--0M-12-0M-0M-0M-3--0M------------|
-----------------------------3--3--3----|


----------------------------------------------------------------------------|
----------------------------------------------------------------------------|
--0-----0M-0M-0M----------0M----0M----0M----------0M----------0M----0M------|
----------------------------------------------------------------------------|


----------------------------------------|
----------------------------------------|
--8M-------8M-------10-10---------------|
----------------------------------------|


----------------------------------------------------------------------------|
----------------------------------------------------------------------------|
--------------------------------------------7-----------7-----8-----8-------|
--0L----------0-----0M----0M-0M-0M----0M----------0M------------------------|


----------------------------------------------------------------------------|
----------------------------------------------------------------------------|
----------------------------------------------------------------------------|
--3L----------3-----3M----3M-3M-3M----3M----------3M------------------------|


----------------------------------------------------------------------------|
----------------------------------------------------------------------------|
--------------------------------------------------------------10------------|
--7L----------7-----7M----7M-7M-7M----------0M----------0M----------0M------|


----------------------------------------|
----------------------------------------|
--7-----------------10----7-------------|
-----0M----0M----0M----0M----0M-5-------|


----------------------------------------------------------------------------|
----------------------------------------------------------------------------|
----------------------------------------------------------------------------|
--3L----------3-----3M----3M-3M-3M----3M----------3M------------------------|


----------------------------------------------------------------------------|
----------------------------------------------------------------------------|
----------------------------------------------------------------------------|
--5L----------5-----5M----5M-5M-5M----5M----------5M------------------------|


----------------------------------------------------------------------------|
----------------------------------------------------------------------------|
--------------------------------------------------------------10------------|
--7L----------7-----7M----7M-7M-7M----------0M----------0M----------0M------|


----------------------------------------|-------------|----------------------|
----------------------------------------|-------------|----------------------|
--7-------------------------------------|-------------|----------------------|
-----0M----0M-------5L----5--12L---12---|--0L----0L---|--0L----0--2L----2----|


-------------|----------------------|-------------|----------------------|
-------------|----------------------|-------------|----------------------|
-------------|----------------------|-------------|----------------------|
--3L----3L---|--3L----3--5L----5----|--7L----7L---|--7L----7--2L----2----|


-------------|-------------|-------------|----------------------|-------------|
-------------|-------------|-------------|----------------------|-------------|
-------------|-------------|-------------|----------------------|-------------|
--3L----3----|--5L----5----|--0L----0L---|--0L----0--2L----2----|--3L----3L---|


----------------------|-------------|----------------------|-------------|
----------------------|-------------|----------------------|-------------|
----------------------|-------------|----------------------|-------------|
--3L----3--5L----5----|--7L----7L---|--7L----7--2L----2----|--3L----3----|


-------------|-------------|----------------------|-------------|
-------------|-------------|----------------------|-------------|
-------------|--5L----5L---|--5L----5--7L----7----|--8L----8L---|
--5L----5----|-------------|----------------------|-------------|


----------------------|-------------|----------------------|-------------|
----------------------|-------------|----------------------|-------------|
--8L----8--10L---10---|--12L---12L--|--12L---12-7L----7----|--8L----8L---|
----------------------|-------------|----------------------|-------------|


----------------------|-------------|----------------------|-------------|
----------------------|-------------|----------------------|-------------|
--8L----8--7L----7----|--5L----5L---|--5L----5--7L----7----|--8L----8L---|
----------------------|-------------|----------------------|-------------|


----------------------|-------------|----------------------|-------------|
----------------------|-------------|----------------------|-------------|
--8L----8--10L---10---|--12L---12L--|--12L---12-7L----7----|--8L----8L---|
----------------------|-------------|----------------------|-------------|


----------------------|-------------|----------------------|-------------|
----------------------|-------------|----------------------|-------------|
--8L----8--10L---10---|-------------|----------------------|-------------|
----------------------|--0L----0L---|--0L----0--2L----2----|--3L----3L---|


----------------------|-------------|----------------------|-------------|
----------------------|-------------|----------------------|-------------|
----------------------|-------------|----------------------|-------------|
--3L----3--5L----5----|--7L----7L---|--7L----7--2L----2----|--3L----3----|


-------------|-------------|----------------------|-------------|
-------------|-------------|----------------------|-------------|
-------------|-------------|----------------------|-------------|
--5L----5----|--0L----0L---|--0L----0--2L----2----|--3L----3L---|


----------------------|-------------|----------------------|-------------|
----------------------|-------------|----------------------|-------------|
----------------------|-------------|----------------------|-------------|
--3L----3--5L----5----|--7L----7L---|--7L----7--2L----2----|--3L----3----|


-------------|
-------------|
-------------|
--5L----5----|


----------------------------------------------------------------------------|
----------------------------------------------------------------------------|
--0-----0M-0M-0M----------0M----0M----0M----------0M----------0M----0M------|
----------------------------------------------------------------------------|


----------------------------------------|
----------------------------------------|
--0M-7--0M-12-0M-0M-0M-3--0M------------|
-----------------------------3--3--3----|


----------------------------------------------------------------------------|
----------------------------------------------------------------------------|
--0-----0M-0M-0M----------0M----0M----0M----------0M----------0M----0M------|
----------------------------------------------------------------------------|


----------------------------------------||
----------------------------------------||
--8M-------8M-------10-10---------------||
----------------------------------------||
Suggest correction
Creating personal tab
Creating personal tab
You can edit any tab online and save it as your Personal.

You can edit, replace or remove any tab part or add personal notes – all changes will be seen only by you.

Personal tabs can be accessed anytime from any device, even offline.
Learn more »
Give kudos to tab author, rate the tab!
1 2 3 4 5
comments
print report bad tab
guest
Wanna post a correction for this tab? Suggest correction