Oops, an error
Loading. Please wait.

Break The Silence tab

version 1
version 1

Whole song

Interactive

15,323 views 1 this week
4 commentsread comments
1 2 3 4 5
x 4
add to favorites
×
Save as Personal and add changes to this tab that will be seen only by you. Learn more ›
×
You can save this tab as Personal to edit and correct it or add notes. All changes will be seen only by you. Learn more »
launch autoscroll
font size
0
reset
how to read this tab
guitar tuner
edit
Autoscroll
slow
fast
+/-
esc
set tempo
stop
Work in Progress
 
Intro Riff
D----------------------------------
A----------------------------------
F----------------------------------
C--3p0---3p0---3p0---7p0-5p0-3p0---
G------5-----5-----5---------------
C----------------------------------
       *     *     *
D-----------------------------------
A-----------------------------------
F-----------------------------------
C---5p0---5p0---5p0---8p0-7p0-5p0---
G-------7-----7-----7---------------
C-----------------------------------
        *     *     *
D-----------------------------------

A-----------------------------------
F-----------------------------------
C---7p0---7p0---7p0---10p0-8p0-7p0--
G-------8-----8-----8---------------
C-----------------------------------
        *     *     *
1st Intro Ending
D-----------------------------------
A-----------------------------------
F------2h3p2------------------------
C---0h3-----3---------2h3p2---------
G------------1/3--0p3------3--------
C---------------------------3/5-----

2nd Intro Ending
D-----------------------------------
A-----------------------------------
F------2h3p2------------------------
C---0p3-----3-----------------------
G------------1/3--8--10--8\\--------
C-----------------8--10--8\\--------

1st Verse
D------------------------------------------------------
A------------------------------------------------------
F------------------------------------------------------
C--------------------------------2h3p2------3--5--8\\--
G---0--0-0--0-0--0-0-0-0-0-0--0h3-----3-----3--5--8\\--
C---0--0-0--0-0--0-0-0-0-0-0-----------2/3--3--5--8\\--
    *  * *  * *  * * * * * *  
2nd Verse             
D-------------------------------------------------------
A-------------------------------------------------------
F--------------------------------2h3p2------------------
C-----------------------------0h3-----3-----8--10--8\\--
G---0--0-0--0-0--0-0-0-0-0-0-----------1/3--8--10--8\\--
C---0--0-0--0-0--0-0-0-0-0-0----------------8--10--8\\--
    *  * *  * *  * * * * * * 

(Repeat 1st Verse)

2nd Verse - 2nd Ending
D------------------------------------------
A------------------------------------------
F------------------------------------------
C------------------------------8--10--8\\--
G---0--0-0--0-0--0-0-0-0-0-0---8--10--8\\--
C---0--0-0--0-0--0-0-0-0-0-0---8--10--8\\--
    *  * *  * *  * * * * * * 

Third Verse
D----------------------------------------------------
A----------------------------------------------------
F----------------------------------------------------
C----------------------------------------------------
G---0-0----0-0----0-0----0-0----0-0--0-----3b-----8--
C---0-0--0-0-0--0-0-0--0-0-0--0-0-0--0-0-0-3b-0-0-8--
    * *  * * *  * * *  * * *  * * *  * * *    * * 
D----------------------------------------------------
A----------------------------------------------------
F----------------------------------------------------
C----------------------------------------------------
G---0-0----0-0----0-0----0-0----0-0--0-----3b-----1--
C---0-0--0-0-0--0-0-0--0-0-0--0-0-0--0-0-0-3b-0-0-1--
    * *  * * *  * * *  * * *  * * *  * * *    * *   
D----------------------------------------------------
A----------------------------------------------------
F----------------------------------------------------
C----------------------------------------------------
G---0-0----0-0----0-0----0-0----0-0--0-----3b-----8--
C---0-0--0-0-0--0-0-0--0-0-0--0-0-0--0-0-0-3b-0-0-8--
    * *  * * *  * * *  * * *  * * *  * * *    * * 
D-----------------------------------------------------------
A-----------------------------------------------------------
F-----------------------------------------------------------
C-----------------------------------------------------------
G---0-0----0-0----0-0----0-0----0-0--0------3-5-3--8p10-10/-
C---0-0--0-0-0--0-0-0--0-0-0--0-0-0--0-0-0--3-5-3--8p10-10/-
    * *  * * *  * * *  * * *  * * *  * * *  * * *

Fourth Verse
D----------------------------------------------------
A----------------------------------------------------
F----------------------------------------------------
C----------------------------------------------------
G------------------------------------3------8--------
C---0-0-0-0-0-0-0-0-0-0-0-0-0-0--0-0-3--0-0-8--------
    * * * * * * * * * * * * * *  * *    * * 
D----------------------------------------------------
A----------------------------------------------------
F----------------------------------------------------
C----------------------------------------------------
G------------------------------------3------1--------
C---0-0-0-0-0-0-0-0-0-0-0-0-0-0--0-0-3--0-0-1--------
    * * * * * * * * * * * * * *  * *    * * 
D----------------------------------------------------
A----------------------------------------------------
F----------------------------------------------------
C----------------------------------------------------
G------------------------------------3------8--------
C---0-0-0-0-0-0-0-0-0-0-0-0-0-0--0-0-3--0-0-8--------
    * * * * * * * * * * * * * *  * *    * * 
D----------------------------------------------------
A----------------------------------------------------
F----------------------------------------------------
C----------------------------------------------------
G--------------------------------1/13---8--10--8\\----
C---0-0-0-0-0-0-0-0-0-0-0-0-0-0--1/13---8--10--8\\----
    * * * * * * * * * * * * * *      

(1st Verse)
(2nd Verse)
(1st Verse)

2nd Verse - Third Ending
D---------------------------------
A---------------------------------
F---------------------------------
C--------------------------0------
G---0--0-0--0-0--0-0-0-0-0-0------
C---0--0-0--0-0--0-0-0-0-0-0------
    *  * *  * *  * * * * * * 

That's all I know 100% so far..



             

            
            
Suggest correction
Creating personal tab
Creating personal tab
You can edit any tab online and save it as your Personal.

You can edit, replace or remove any tab part or add personal notes – all changes will be seen only by you.

Personal tabs can be accessed anytime from any device, even offline.
Learn more »
comments
print report bad tab
4 comments total. Showing first comments.
0 reply
spoony 101 10 Jul 13, 2007 06:01 AM

nice tab dude :)

0 reply
penguinkiller72 41 Oct 23, 2007 11:37 AM

the notes are mostly tabbed right, but the overall accuracy as to the way killswitch plays it is just wrong

0 reply
LawL_Vengeance 10 Jul 19, 2014 08:26 PM, edited on July 20 2014, 12:32 am

----------------------------------------------------------------------------------------------------------------------------------------------------------------------------------------------------------------------------------------------------------------------------------------------------------------------------------------------------------------------------------------------------------------------------------------------------------------------------------------------------------------------------------------------------------------------------------------------------------------------8----------------------12--8--10--8-----------------------------------------------------------------------------------------------------------------------------------------0--8--12-------12--8--10--8----------------------12--8--10--8----------------------------------------------------------------------------------------------------
---------------------------------------------------------------------------------------------------------------------------------------------------------------------------------------

This took me some time to figure out. I figured Id share it with you guys lol.

guest
You may want to rate the tab now too:
select rating
Wanna post a correction for this tab? Suggest correction