Oops, an error
Loading. Please wait.

Define Love Tab

25 views 3 this week
no commentswrite comment
1 2 3 4 5
2 more votes to show rating
add to favorites
launch autoscroll
font size
0
reset
how to read this tab
guitar tuner
Autoscroll
slow
fast
+/-
esc
set tempo
stop
Help us to improve Ultimate-Guitar.com Take our survey!
×
Author
Tuning
D G C F A D
Hope it's alright! ^-^

[Intro]

D|---------------------------3/5-3--------------------------------------|
A|------------------------0-3-----3-------------------------------------|
F|-----------------------0-0--------2h4-0-------------0-----------------|(x2)
C|---------------4-4-5--2---------------------4-4-5--4-4-2h4-0--0-------|
G|---------------5-5-7------------------------5-5-7------------3-3-0h2--|
D|-2/15\0--0-0-0--0----------------------0-0-0-0----------------------3-|

[Verse]

D|-------------------------------------------------------|
A|--------------------8----------------------------------|
F|--------------------7(x4)---------------------0--------|
C|-2-----2-2-2-5-2----------2-----2-2-2-5-2----4-4-2h4-0-|(x2)
G|-2-----3-0-0-3-2----------2-----3-0-0-3-2--------------|
D|-0(x6)-0-0-0-0-0(x4)------0(x6)-0-0-0-0-0(x4)----------|

[Chorus] Can't really hear the 2nd and 3rd, so they're just a guess :)

D|-------------------------------------------------------|
A|-------------------------------------------------------|
F|-12------7-----9---------0---------12------7-----9-----|
C|-10------5-----7-----2--4-4-2h4-0--10------5-----7-----|
G|-10(x12)-5(x6)-7(x6)-2-------------10(x12)-5(x6)-7(x6)-|
D|---------------------0---------------------------------|

Just repeat the intro twice, then play the verse again, although this verse has octaves:

D|------------------|
A|------------------|
F|-7/9------9/12----|
C|------------------|
G|-5/7------7/10----|
D|-0/0(x24)-0/0(x5)-|


Repeat chorus but end on:

D|--------------------|
A|--------------------|
F|-12-----9-----11----|
C|--------------------|
G|-10-----7-----9-----|
D|-0(x10)-0(x6)-0(x6)-|

[Bridge] Not entirely sure about this part:

D|--------------------------------------------------------------------------|
A|----------------------------8-8-8-8----------------8-8-8-8----------------|
F|----------------------------7-7-5-5----------------7-7-5-5--9-11-11/12-12-|
C|-2-2-----2h4-0-0h2------2-2--------2h4-0-0h2---2-2------------------------|(x4)
G|-2-2--------------3-----2-2-----------------3--2-2----------7/9---9/10-10-|
D|-0-0(x3)-----------(x2)-0-0--------------------0-0----------0-------------|


D|-------------------------------|
A|-------------------------------|
F|-------------------------------|
C|-------------------------------|
G|-------------------------------|
D|-8~-7~-5~-10~-0~-\pick scrape/-|

[Outro] Basically repeat chorus and end on this:

D|---------------------------------------|
A|---------------------------------------|
F|--0----------0-0~--0---------12-12-----|
C|-4-4-2h4-0--4-4---4-4-2h4-0--10-10-----|
G|-----------------------------10-10(x4)-|
D|---------------------------------------|


************************************

| x   Dead note
| g   Grace note
| (n) Ghost note
| h   Hammer-on
| p   Pull-off
| r   Release
| >   Accented note
| t   Tapping
| b   Bend
| br  Bend release
| pb  Pre-bend
| pbr Pre-bend release
| /   Slide up
| \   Slide down
| ~   Vibrato
| s   Slap
| P   Pop
| PM  Palm mute
| TR  Trill
| N   Tremolo

************************************
Suggest correction
Give kudos to tab author, rate the tab!
1 2 3 4 5
comments
print report bad tab
guest
You may want to rate the tab now too:
select rating
Wanna post a correction for this tab? Suggest correction