Oops, an error
Loading. Please wait.

Element Of One tab

version 3
version 3

Whole song

Interactive

14,899 views 3 this week
4 commentsread comments
1 2 3 4 5
x 6
add to favorites
×
Save as Personal and add changes to this tab that will be seen only by you. Learn more ›
×
You can save this tab as Personal to edit and correct it or add notes. All changes will be seen only by you. Learn more »
launch autoscroll
font size
0
reset
how to read this tab
guitar tuner
edit
Autoscroll
slow
fast
+/-
esc
set tempo
stop
Author
Tuning: Drop C (C G C F A D)


Intro (Acoustic Guitar)
|------------------------------------------|
|------------------------------------------|
|-5----5---5-5-5-5-5-5-5-5-5-5-5-5-5-5-5-5-|
|-3----3---3-3-3-3-3-3-3-3-3-3-3-3-3-3-3-3-|
|-1----------1---------1---------1---------|
|------------------------------------------|

|-----------------------------------------|
|-----------------------------------------|
|-5-5-5-5-5-5-5-5-5-5-5-5-5-5-5-5-5-5-5-5-|
|-3-3-3-3-3-3-3-3-3-3-3-3-3-3-3-3-3-3-3-3-|
|-0---------0---------0---------0---------|
|-0---------0---------0---------0---------|

|-----------------------------------------|
|-----------------------------------------|
|-5-5-5-5-5-5-5-5-5-5-5-5-5-5-5-5-5-5-5-5-|
|-3-3-3-3-3-3-3-3-3-3-3-3-3-3-3-3-3-3-3-3-|
|-1---------1---------1---------1---------|
|-----------------------------------------|

|-----------------------------------------|
|-----------------------------------------|
|-5-5-5-5-5-5-5-5-5-5-5-5-5-5-5-5-5-5-5-5-|
|-3-3-3-3-3-3-3-3-3-3-3-3-3-3-3-3-3-3-3-3-|
|-0---------0---------0---------0---------|
|-0---------0---------0---------0---------|


Intro Chorus (Repeat X4)
Guitar 1
|----------------------------------------------------------|
|----------------------------------------------------------|
|----------------------------------------------------------|
|-3----------------3-----------3--3-----3-----3--3---5---7-|
|-1----------------1-----------1--1-----1-----1--1---3---5-|
|----------------------------------------------------------|
|         
Guitar 2
|------------------------------------------------------------|
|------------------------------------------------------------|
|------------------------------------------------------------|
|10-10-10-10-10-10-7-7-7-7-7-7-------------------7-7-7-7-7-7-|
|------------------------------10-10-10-10-10-10-------------|
|------------------------------------------------------------|


Guitar 1 (..contin.)
|----------------------------------------------------------|
|----------------------------------------------------------|
|----------------------------------------------------------|
|------------------------------------------------7---5---3-|
|-0----------------0-----------0--0-----0-----0--5---3---1-|
|-0----------------0-----------0--0-----0-----0------------|
|
Guitar 2 (..contin.)
|------------------------------------------------------------|
|------------------------------------------------------------|
|------------------------------------------------------------|
|10-10-10-10-10-10-7-7-7-7-7-7-------------------7-7-7-7-7-7-|
|------------------------------10-10-10-10-10-10-------------|
|------------------------------------------------------------|
|
Guitar 3 (very faint when the words come in)
|------------------------------------------------------------------|
|------------------------------------------------------------------|
|-9/10-10-10-------9/10-10-10---9/10-10-10----10/14-14-14-14-14-14-|
|------------------------------------------------------------------|
|-7/-8--8--8-------7/-8--8--8---7/-8--8--8-----8/12-12-12-12-12-12-|
|------------------------------------------------------------------|


Riff 1 (Repeat X2)
Guitars 1 & 2
|-------------------------------------------------|
|-------------------------------------------------|
|-------------------------------------------------|
|-------------------------------------------------|
|-------5-----------5-----------5-----8-----5-----|
|-0-3-7---8-7-0-3-7---8-7-0-3-7---8-7---8-8---8-7-|
|
Guitars 1 & 2
|-------------------------------------------------|
|-------------------------------------------------|
|-------------------------------------------------|
|-------------------------------------------------|
|-------5-----------5-----------3-----------1-----|
|-0-3-7---8-7-0-3-7---8-7-3-3-3---3-3-1-1-1---1-1-|
  

Riff 2 (Repeat X2)
Guitars 1 & 2
|----------------------------------|
|----------------------------------|
|----------------------------------|
|---3---2---5---7-------10---------|
|---1---0---3---5--------8---------|
|-0---0---0---0---0-0-0----0-0-0-0-|
|
Guitars 1 & 2
|--------------------------------|
|--------------------------------|
|--------------------------------|
|---3---2---5---7------10-10\5-5-|
|---1---0---3---5-------8--8\3-3-|
|-0---0---0---0---0-0-0----------|

Play Riff 1 X2

Riff 2 - Right Before Chorus
Guitar 2 (Plays this under Riff 2 [above])
|-------------------------|
|-------------------------|
|-10-10-10-10-10-10-10-10-|
|-------------------------|(Play twice)
|--8--8--8--8--8--8--8--8-|
|-------------------------|
|
|-------------------------|
|-------------------------|
|-14-14-14-14-14-14-14-14-|
|-------------------------|(Play twice)
|-12-12-12-12-12-12-12-12-|
|-------------------------|

Play Chorus X4

Acoustic Part (Repeat X2)
|-----------------------------------------------------|
|-----------------------------------------------------|
|---------10-----------10-----------10-----------10---|
|-8---8--------8---8--------8---8--------8---8--------|
|---6---6----6---6---6----6---6---6----6---6---6----6-|
|-----------------------------------------------------|

|-----------------------------------------------------|
|-----------------------------------------------------|
|---------7-----------7-----------7-----------7-------|
|-5---5-------5---5-------5---5-------5---5-----------|
|---5---5---5---5---5---5---5---5---5---5---5---5-----|
|-----------------------------------------------------|


Riff 3 (Repeat X2)
Guitars 1 & 2
|-------------------------------------------------|
|-------------------------------------------------|
|-------------------------------------------------|
|-3-----------3-----------3-----------3-----------|
|---5-0-5-0-5---5-0-5-0-5---5-0-5-0-5---5-0-5-0-5-|
|-------------------------------------------------|
 
Guitars 1 & 2
|-----------------------------------------------------|
|-----------------------------------------------------|
|-----------------------------------------------------|
|-7-----10-----7-----10-----7------7------5-----5-----|
|---0-0----0-0---0-0----0-0---------------------------|
|-----------------------------10-8---10-8---8-7---8-7-|
 

Bridge
Guitar 1
|---------------------------------|
|---------------------------------|
|---------------------------------|
|---------------------------------|
|1-1-1-1-1-1-1-1-1-1-1-1-1-1-1-3-3|
|1-1-1-1-1-1-1-1-1-1-1-1-1-1-1-3-3|
|
Guitar 2
|---------------------------------|
|---------------------------------|
|---------5-7----5-7----5-7-------|
|---------7-8----7-8----7-8-------|
|---------------------------------|
|---------------------------------|


Guitar 1
|---------------------------------|
|---------------------------------|
|---------------------------------|
|---------------------------------|
|5-5-5-5-5-5-5-5-5-5-5-5-5-5-5-3-3|
|5-5-5-5-5-5-5-5-5-5-5-5-5-5-5-3-3|
|
Guitar 2
|---------------------------------|
|---------------------------------|
|---------5-7----5-7----5-7-------|
|---------7-8----7-8----7-8-------|
|---------------------------------|
|---------------------------------|


Guitar 1
|---------------------------------|
|---------------------------------|
|---------------------------------|
|---------------------------------|
|1-1-1-1-1-1-1-1-1-1-1-1-1-1-1-3-3|
|1-1-1-1-1-1-1-1-1-1-1-1-1-1-1-3-3|
|
Guitar 2
|---------------------------------|
|---------------------------------|
|---------5-7----5-7----5-7-------|
|---------7-8----7-8----7-8-------|
|---------------------------------|
|---------------------------------|


Guitar 1
|-------------------------------------------------|
|-------------------------------------------------|
|-------------------------------------------------|
|-------------------------------------------------|
|5-5-5-5-5-5-5-5-5-5-5-5-5-5-5-5-5-5-5-3-3-3-3-3-3|
|5-5-5-5-5-5-5-5-5-5-5-5-5-5-5-5-5-5-5-3-3-3-3-3-3|
|
Guitar 2
|---------------------------------|
|---------------------------------|
|---------5-7----5-7----5-7-------|
|---------7-8----7-8----7-8-------|
|---------------------------------|
|---------------------------------|

Chorus Riff

Outro
Guitar 1
|----------------------------------------|
|----------------------------------------|
|----------------------------------------|
|1-----------1-----------1-----------1---|
|1-----------1-----------1-----------1---|
|1-----------1-----------1-----------1---|
|
Guitar 2
|----------------------------------------|
|----------------------------------------|
|10---------10----------10----------10---|
|-8----------8-----------8-----------8---|
|-6----------6-----------6-----------6---|
|----------------------------------------|

            
            
Suggest correction
Creating personal tab
Creating personal tab
You can edit any tab online and save it as your Personal.

You can edit, replace or remove any tab part or add personal notes – all changes will be seen only by you.

Personal tabs can be accessed anytime from any device, even offline.
Learn more »
comments
print report bad tab
4 comments total. Showing first comments.
0 reply
unformed68 10 Aug 12, 2009 08:36 PM

This looks great. The only thing is I think during the main riff:

|---------------------------------------------------|
|---------------------------------------------------|
|---------------------------------------------------|
|---------------------------------------------------|
|-------5-----------5-------------5-----8-----5-----|
|-0-3-7---8-7-0-3-7---8-7-0-(3)-7---8-7---8-8---8-7-|

|-------------------------------------------------|
|-------------------------------------------------|
|-------------------------------------------------|
|-------------------------------------------------|
|-------5-----------5-----------3-----------1-----|
|-0-3-7---8-7-0-3-7---8-7-3-3-3---3-3-1-1-1---1-1-|

That part 3 i put in () should be a 5. Maybe I'm wrong, but it sounds better.

0 reply
thatADHDkid 51 Sep 26, 2009 08:47 PM

lol thats wat every1 is saying but im pretty sure its the way i have it. i even slowed the song down to make sure because i didnt think it sounded right. listen to it carefully and play it the way i tabbed it to where u can play it smoothly. trust me its right. if not then my ears r really screwed up. cuz not to sound like cocky bastard but ive got some pretty detailed-hearing ears. i can pick stuff up most other ppl cant. idk if that enough reason to believe what i have but like i said try to play it to the point where its smooth and itll sound better. or just slow the song down and listen to that part. im 100% sure its right =p plus the way i have it tabbed is easier that trying to stretch the -8-7- part. and yeah the (3) is a 5 is the way i tabbed it except im pretty sure the -8-7- part is wrong =p

+1 reply
Brianx02 10 Apr 21, 2012 09:01 PM

thits how the main rifft should be played

|---------------------------------------------------|
|---------------------------------------------------|
|---------------------------------------------------|
|---------------------------------------------------|
|-------5-----------5-------------5-----8-5---5-----|
|-0-3-7---7-3-0-3-7---7-3-0-(5)-8---8-5-----8---8-5-|

|-------------------------------------------------|
|-------------------------------------------------|
|-------------------------------------------------|
|-------------------------------------------------|
|-------5-----------5-----------3-----------1-----|
|-0-3-7---7-3-0-3-7---7-3-0-3-3---3-3-0-1-1---1-1-|

guest
You may want to rate the tab now too:
select rating
Wanna post a correction for this tab? Suggest correction