Oops, an error
Loading. Please wait.

End Of Heartache bass

version 1
version 1

Whole song

Interactive

9,977 views 9 this week
6 commentsread comments
1 2 3 4 5
x 6
add to favorites
×
Save as Personal and add changes to this tab that will be seen only by you. Learn more ›
×
You can save this tab as Personal to edit and correct it or add notes. All changes will be seen only by you. Learn more »
launch autoscroll
font size
0
reset
guitar tuner
edit
Autoscroll
slow
fast
+/-
esc
set tempo
stop
Author
Difficulty
The End Of Heartache
Tuning-C G C F

Intro

G ----------------------------------------------------|
D ----------------------------------------------------|
G ----------------------------------------------------|
C 0~----------------------10~-----0~---------------10-|


Verse x2
G --------------------------------------------------------------------------|
D --------------------------------------------------------------------------|
G -----------------------------8-7-3-5------------------------------8-7-3~--|
C -0-0-0-0—--0-0-0-0-0-0----------------0-0-0-0---0-0-0-0-0-0---------------|

G --------------------------------------------------------------------------|
D --------------------------------------------------------------------------|
G ------------------------------8-7-3-5-------------------------------------|
C --8-8-8-8---8-8-8-8-8-8----------------8-8-8-8---8-8-8-8-8-8------8-10-10-|


Chorus
G -------------------------------------------------------|
D -------------------------------------------------------|
G -------------------------------------------------------|
C -0-0-0-0--0-0-0-0-0-0-0—-0-0-0-0-0-0-0-—0-0-0--8~-7~---|

G -------------------------------------------------------|
D -------------------------------------------------------|
G --------------------------------------------8~-7~------|
C -0-0-0-0--0-0-0-0-0-0-0—-0-0-0-0-0-0-0-—0-0-0----------|

G -------------------------------------------------------|
D -------------------------------------------------------|
G -------------------------------------------------------|
C -0-0-0-0--0-0-0-0-0-0-0—-0-0-0-0-0-0-0-—0-0-0--8~-7~---|

G -------------------------------------------------------|
D -------------------------------------------------------|
G -------------------------------------------------------|
C -0-0-0-0--0-0-0-0-0-0-0—-0-0-0-0-0-0-0-—0-0-0-10-10-10-|


Verse x2
G --------------------------------------------------------------------------|
D --------------------------------------------------------------------------|
G -----------------------------8-7-3-5------------------------------8-7-3~--|
C -0-0-0-0—--0-0-0-0-0-0----------------0-0-0-0---0-0-0-0-0-0---------------|

G --------------------------------------------------------------------------|
D --------------------------------------------------------------------------|
G ------------------------------8-7-3-5-------------------------------------|
C --8-8-8-8---8-8-8-8-8-8----------------8-8-8-8---8-8-8-8-8-8------8-10-10-|

Preverse x2

G -----------------------------------------------------------------|
D -----------------------------------------------------------------|
G -----------------------------------------------------------------|
C -8-8-8-8-8-8-8-8-8-8-8-8-8-8-8-8-0-0-0-0-0-0-0-0-0-0-0-0-0-0-0-0-|

G ----------------------------------------------------------------|
D ----------------------------------------------------------------|
G ----------------------------------------------------------------|
C -10-10-10-10-10-10-10-10-10-10-10-10-10-12-10-7-8-8-8-8-8-8-8-8-|

G ---------------------|
D ---------------------|
G ---------------------|
C 10-10-10-10-10-10-10-|

Verse x2
G --------------------------------------------------------------------------|
D --------------------------------------------------------------------------|
G -----------------------------8-7-3-5------------------------------8-7-3~--|
C -0-0-0-0—--0-0-0-0-0-0----------------0-0-0-0---0-0-0-0-0-0---------------|

G --------------------------------------------------------------------------|
D --------------------------------------------------------------------------|
G ------------------------------8-7-3-5-------------------------------------|
C --8-8-8-8---8-8-8-8-8-8----------------8-8-8-8---8-8-8-8-8-8------8-10-10-|


Chorus
G -------------------------------------------------------|
D -------------------------------------------------------|
G -------------------------------------------------------|
C -0-0-0-0--0-0-0-0-0-0-0—-0-0-0-0-0-0-0-—0-0-0--8~-7~---|

G -------------------------------------------------------|
D -------------------------------------------------------|
G --------------------------------------------8~-7~------|
C -0-0-0-0--0-0-0-0-0-0-0—-0-0-0-0-0-0-0-—0-0-0----------|

G -------------------------------------------------------|
D -------------------------------------------------------|
G -------------------------------------------------------|
C -0-0-0-0--0-0-0-0-0-0-0—-0-0-0-0-0-0-0-—0-0-0--8~-7~---|

G -------------------------------------------------------|
D -------------------------------------------------------|
G -------------------------------------------------------|
C -0-0-0-0--0-0-0-0-0-0-0—-0-0-0-0-0-0-0-—0-0-0-10-10-10-|


Preverse x2

G -----------------------------------------------------------------|
D -----------------------------------------------------------------|
G -----------------------------------------------------------------|
C -8-8-8-8-8-8-8-8-8-8-8-8-8-8-8-8-0-0-0-0-0-0-0-0-0-0-0-0-0-0-0-0-|

G ----------------------------------------------------------------|
D ----------------------------------------------------------------|
G ----------------------------------------------------------------|
C -10-10-10-10-10-10-10-10-10-10-10-10-10-12-10-7-8-8-8-8-8-8-8-8-|

G ---------------------|
D ---------------------|
G ---------------------|
C 10-10-10-10-10-10-10-|


Breakdown x3

G -----------------------------------------------------------------|
D -----------------------------------------------------------------|
G -----------------------------------------------------------------|
C 5-303-0—0-0-0—0-0-0-1—0-0-0-0-1--5-303-0—0-0-0—0-0-0-1—0-0-0-0-0-|

4th time end with C 0-0-0-0-0-0-0


short break, then you can either pick slide with the guitars or do a repeated 8 on the C 
into the preverse.

Preverse x2

G -----------------------------------------------------------------|
D -----------------------------------------------------------------|
G -----------------------------------------------------------------|
C -8-8-8-8-8-8-8-8-8-8-8-8-8-8-8-8-0-0-0-0-0-0-0-0-0-0-0-0-0-0-0-0-|

G ----------------------------------------------------------------|
D ----------------------------------------------------------------|
G ----------------------------------------------------------------|
C -10-10-10-10-10-10-10-10-10-10-10-10-10-12-10-7-8-8-8-8-8-8-8-8-|

G ---------------------|
D ---------------------|
G ---------------------|
C 10-10-10-10-10-10-10-|

Outro
G -------------------|
D -------------------|
G -------------------|
C 0-0-0-0—-0-0-0-0-0-|


one of their best songs ever.
Suggest correction
Creating personal tab
Creating personal tab
You can edit any tab online and save it as your Personal.

You can edit, replace or remove any tab part or add personal notes – all changes will be seen only by you.

Personal tabs can be accessed anytime from any device, even offline.
Learn more »
comments
print report bad tab
6 comments total. Showing first comments.
0 reply
evo999 10 Apr 28, 2008 02:40 AM

thats intermediate?

0 reply
evo999 10 Apr 28, 2008 02:42 AM

perfectly done tho

0 reply
bass_boi_ftw 102 Aug 21, 2008 01:21 PM

this is actually really wrong, mike don't play the 8735 parts at all, i hate it when people play that.

guest
You may want to rate the tab now too:
select rating
Wanna post a correction for this tab? Suggest correction