Oops, an error
Loading. Please wait.

End Of Heartache bass

version 2
version 2

Whole song

Interactive

1,754 views 1 this week
no commentswrite comment
1 2 3 4 5
2 more votes to show rating
add to favorites
×
Save as Personal and add changes to this tab that will be seen only by you. Learn more ›
×
You can save this tab as Personal to edit and correct it or add notes. All changes will be seen only by you. Learn more »
launch autoscroll
font size
0
reset
guitar tuner
edit
Autoscroll
slow
fast
+/-
esc
set tempo
stop
The End Of Heartache
Killswitch Engage
Tuning: C G C F
This is my version, based on a hybrid between BassJon 09’s version, trying to figure
out on my own,  and seeing Mike D play this in my face 1 month ago. Credit for the bridge
teh fun bending of nots goes solely to BassJon 09. I don't know if he is still active on 
on UG, so yeah. I couldn’t figure that bridge out on my own. Tuning is Drop C.  The
that look like chords are merely 2 different ways you could play this song; it depends 
your comfort. Enjoy and I hope this brings more metal into your day. Oh, and rate this if 
like it.

~=let it ring
h=hammer on

(Intro)
|----------------------------------------------------------------------|
|--------------------------3-2------------------3-2--------------------|
|---3~--3~--------------------3h5------------------3-4-4-4-4-4-4-4-4-4-|
|-0~-0~--0-0-0-0-0-0-0-0-0-------0-0-0-0-0-0-0-0-----8-8-8-8-8-8-8-8-8-|

|----------------------------------------------|
|-3-2------------------------------------------|
|----3h54-4-4-4-4-4-4-4-4------4-6-6-----------|
|-------8-8-8-8-8-8-8-8-8—-----8-10-10---------|


|---------------------------------------------------------------------|
|------------------3-2-------------------3-2-------------------3-2----|
|---------------------3h5-------------------3-4-4-4-4-4-4-4-4-4---3h5-|
|-0-0-0-0-0-0-0-0-0-------0-0-0-0-0-0-0-0-----8-8-8-8-8-8-8-8-8-------|


|------------------------------|
|------------------------------|
|-4-4-4-4-4-4-4-4-4----4--6--6-|
|-8-8-8-8-8-8-8-8-8----8-10-10-|


|-0-0-0-0-0-0-0-0-0-0-0-0-0-0-0-0-0-0-0-0-0------|

|-------------------------------------------------------------|
|-------------------------------------------------------------|
|-------------------------------------------------------------|
|-0-0-0-0-0-0-0-0-0-0-0-0-0-0-0-0-0-0-0-0-0-5b5r5b5r-3b3r3b3r-|

|-------------------------------------------------------------|
|-------------------------------------------------------------|
|-------------------------------------------------------------|
|-0-0-0-0-0-0-0-0-0-0-0-0-0-0-0-0-0-0-0-0-0-9b9r9b9r-7b7r7b7r-|


|-------------------------------------------------------------|
|-------------------------------------------------------------|
|-------------------------------------------------------------|
|-0-0-0-0-0-0-0-0-0-0-0-0-0-0-0-0-0-0-0-0-0-5b5r5b5r-3b3r3b3r-|

|------------------------------------------------|
|------------------------------------------------|
|------------------------------------------1-1-1-|

(Verse 1)2X
|---------------------------------------------------------------------|
|------------------3-2-------------------3-2-------------------3-2----|
|---------------------3h5-------------------3-4-4-4-4-4-4-4-4-4---3h5-|
|-0-0-0-0-0-0-0-0-0-------0-0-0-0-0-0-0-0-----8-8-8-8-8-8-8-8-8-------|

|-----------------------------|
|-----------------------------|
|-4-4-4-4-4-4-4-4-4----4--6--6|
|-8-8-8-8-8-8-8-8-8----8-10-10|

(Pre-Chorus)
|-------------------------------------------------------------|
|-------------------------------------------------------------|
|-------------------------------------------------------------|
|-0-0-0-0-0-0-0-0-0-0-0-0-0-0-0-0-0-0-0-0-0-5b5r5b5r-3b3r3b3r-|

|-------------------------------------------------------------|
|-------------------------------------------------------------|
|-------------------------------------------------------------|
|-0-0-0-0-0-0-0-0-0-0-0-0-0-0-0-0-0-0-0-0-0-9b9r9b9r-7b7r7b7r-|


|-------------------------------------------------------------|
|-------------------------------------------------------------|
|-------------------------------------------------------------|
|-0-0-0-0-0-0-0-0-0-0-0-0-0-0-0-0-0-0-0-0-0-5b5r5b5r-3b3r3b3r-|

|------------------------------------------------|
|------------------------------------------------|
|------------------------------------------3-3-3-|
|-0-0-0-0-0-0-0-0-0-0-0-0-0-0-0-0-0-0-0-0-0------|

(Chorus)2X
|-----------------------------------------------------------------|
|-----------------------------------------------------------------|
|-4-4-4-4-4-4-4-4-4-4-4-4-4-4-4-4---------------------------------|
|-8-8-8-8-8-8-8-8-8-8-8-8-8-8-8-8-0-0-0-0-0-0-0-0-0-0-0-0-0-0-0-0-|

|---------------------------------------------------------------------------|
|---------------------------------------------------------------------------|
|-3-3-3-3-3-3-3-3-3-3-3-3-3-3-3-5-3-----------------------------------------|
|----------------------------------7-8-8-8-8-8-8-8-8-10-10-10-10-10-10-10-10|

(Verse 2)2X
|---------------------------------------------------------------------|
|------------------3-2-------------------3-2-------------------3-2----|
|---------------------3h5-------------------3-4-4-4-4-4-4-4-4-4---3h5-|
|-0-0-0-0-0-0-0-0-0-------0-0-0-0-0-0-0-0-----8-8-8-8-8-8-8-8-8-------|

|-----------------------------|
|-----------------------------|
|-4-4-4-4-4-4-4-4-4----4--6--6|
|-8-8-8-8-8-8-8-8-8----8-10-10|

(Pre-Chorus)
|-------------------------------------------------------------|
|-------------------------------------------------------------|
|-------------------------------------------------------------|
|-0-0-0-0-0-0-0-0-0-0-0-0-0-0-0-0-0-0-0-0-0-5b5r5b5r-3b3r3b3r-|

|-------------------------------------------------------------|
|-------------------------------------------------------------|
|-------------------------------------------------------------|
|-0-0-0-0-0-0-0-0-0-0-0-0-0-0-0-0-0-0-0-0-0-9b9r9b9r-7b7r7b7r-|


|-------------------------------------------------------------|
|-------------------------------------------------------------|
|-------------------------------------------------------------|
|-0-0-0-0-0-0-0-0-0-0-0-0-0-0-0-0-0-0-0-0-0-5b5r5b5r-3b3r3b3r-|

|------------------------------------------------|
|------------------------------------------------|
|------------------------------------------3-3-3-|
|-0-0-0-0-0-0-0-0-0-0-0-0-0-0-0-0-0-0-0-0-0------|

(Chorus)2X
|-----------------------------------------------------------------|
|-----------------------------------------------------------------|
|-4-4-4-4-4-4-4-4-4-4-4-4-4-4-4-4---------------------------------|
|-8-8-8-8-8-8-8-8-8-8-8-8-8-8-8-8-0-0-0-0-0-0-0-0-0-0-0-0-0-0-0-0-|

|---------------------------------------------------------------------------|
|---------------------------------------------------------------------------|
|-3-3-3-3-3-3-3-3-3-3-3-3-3-3-3-5-3-----------------------------------------|
|----------------------------------7-8-8-8-8-8-8-8-8-10-10-10-10-10-10-10-10|

(Bridge)x3
|---------------------------------------------|
|---------------------------------------------|
|---------------------------------------------|
|-5-5-5-5-5-0-3-0-0-0-0-0-0-0-0-0-8-0-0-0-0-8-|

X1
|----------------------------------------------|--------------|
|----------------------------------------------|--------------|
|----------------------------------------------|--------------|
|-5-5-5-5-5-0-3-0-0-0-0-0-0-0-0-0-8-0-0-0-0-0-0|0-0-0-0-0-0-0-|

(Chorus)2X
|-----------------------------------------------------------------|
|-----------------------------------------------------------------|
|-4-4-4-4-4-4-4-4-4-4-4-4-4-4-4-4---------------------------------|
|-8-8-8-8-8-8-8-8-8-8-8-8-8-8-8-8-0-0-0-0-0-0-0-0-0-0-0-0-0-0-0-0-|

|---------------------------------------------------------------------------|
|---------------------------------------------------------------------------|
|-3-3-3-3-3-3-3-3-3-3-3-3-3-3-3-5-3-----------------------------------------|
|----------------------------------7-8-8-8-8-8-8-8-8-10-10-10-10-10-10-10-10|


Ending
|-------------------|
|-------------------|
|-------------------|
|-0-0-0-0-0-0-0-0-0-|
Suggest correction
Creating personal tab
Creating personal tab
You can edit any tab online and save it as your Personal.

You can edit, replace or remove any tab part or add personal notes – all changes will be seen only by you.

Personal tabs can be accessed anytime from any device, even offline.
Learn more »
Give kudos to tab author, rate the tab!
1 2 3 4 5
comments
print report bad tab
guest
Wanna post a correction for this tab? Suggest correction