Oops, an error
Loading. Please wait.

Fixation On The Darkness tab

version 3
version 3

Interactive

40,114 views 24 this week
16 commentsread comments
1 2 3 4 5
x 19
add to favorites
×
Save as Personal and add changes to this tab that will be seen only by you. Learn more ›
×
You can save this tab as Personal to edit and correct it or add notes. All changes will be seen only by you. Learn more »
launch autoscroll
font size
0
reset
how to read this tab
guitar tuner
backing track
0:00
0:00
edit
Autoscroll
slow
fast
+/-
esc
set tempo
stop
Key:
/=forward slide
//=backward slide
*=pinch harmonic
m=palm mute
p=pulloff
h=hammer on
x=mute


Riff one (6 times)
e --------------------------------------------------------------------------|
B --------------------------------------------------------------------------|
G --------------------------------------------------------------------------|
D --------------------------------------------------------------------------|
A -12//----------3--5-------5-------5-------3--6-------6-------3h6p3p0------|
D -12//--5--0-0--------0-0-----0-0-----0-0--------0-0-----0-0---------------|
            m m        m m     m m     m m        m m     m m


Riff two
e --------------------------------------------------------------------------|
B --------------------------------------------------------------------------|
G --------------------------------------------------------------------------|
D ----------------------------3--3--3---------------------------------------|
A -0--------0-----1-----0-----1--0--1---------------------------------------|
D -0--0--0--0--0--1--0--0--0-----------3/6--*6------------------------------|
      m  m     m     m     m

Riff three
e --------------------------------------------------------------------------|
B --------------------------------------------------------------------------|
G --------------------------------------------------------------------------|
D ----------------------------3--3--3---------------------------------------|
A -0--------0-----1-----0-----1--0--1--1/4--*4------------------------------|
D -0--0--0--0--0--1--0--0--0------------------------------------------------|
      m  m     m     m     m


After riff three go back into riff two then play riff four (below)

Riff four
e --------------------------------------------------------------------------|
B --------------------------------------------------------------------------|
G --------------------------------------------------------------------------|
D ----------------------------3--3--3--3/6--6//-----------------------------|
A -0--------0-----1-----0-----1--0--1--1/4--4//-----------------------------|
D -0--0--0--0--0--1--0--0--0------------------------------------------------|
      m  m  m  m     m     m

Riff five (2 times)
e --------------------------------------------------------------------------|
B --------------------------------------------------------------------------|
G --------------------------------------------------------------------------|
D --------------------------------------------------------------------------|
A -------------------------------------3------------------------------------|
D -0--0-----0-0-0-0--0--0----0--0----5/6------------------------------------|
   m  m     m m m m  m  m    m  m

Riff one (2 times)
e --------------------------------------------------------------------------|
B --------------------------------------------------------------------------|
G --------------------------------------------------------------------------|
D --------------------------------------------------------------------------|
A -12//----------3--5-------5-------5-------3--6-------6-------3h6p3p0------|
D -12//--5--0-0--------0-0-----0-0-----0-0--------0-0-----0-0---------------|
            m m        m m     m m     m m        m m     m m

Riff two
e --------------------------------------------------------------------------|
B --------------------------------------------------------------------------|
G --------------------------------------------------------------------------|
D ----------------------------3--3--3---------------------------------------|
A -0--------0-----1-----0-----1--0--1---------------------------------------|
D -0--0--0--0--0--1--0--0--0-----------3/6--*6------------------------------|
      m  m     m     m     m

Riff three
e --------------------------------------------------------------------------|
B --------------------------------------------------------------------------|
G --------------------------------------------------------------------------|
D ----------------------------3--3--3---------------------------------------|
A -0--------0-----1-----0-----1--0--1--1/4--*4------------------------------|
D -0--0--0--0--0--1--0--0--0------------------------------------------------|
      m  m     m     m     m

Riff two
e --------------------------------------------------------------------------|
B --------------------------------------------------------------------------|
G --------------------------------------------------------------------------|
D ----------------------------3--3--3---------------------------------------|
A -0--------0-----1-----0-----1--0--1---------------------------------------|
D -0--0--0--0--0--1--0--0--0-----------3/6--*6------------------------------|
      m  m     m     m     m

Riff four
e --------------------------------------------------------------------------|
B --------------------------------------------------------------------------|
G --------------------------------------------------------------------------|
D ----------------------------3--3--3--3/6--6//-----------------------------|
A -0--------0-----1-----0-----1--0--1--1/4--4//-----------------------------|
D -0--0--0--0--0--1--0--0--0------------------------------------------------|
      m  m  m  m     m     m

Riff six (4 times)
e ----------3---------------------2-----------------0-----------------------|
B ----3--------3---------3-----------3--------3--------3--------------------|
G -------0--------0---------0-----------0--------2--------2-----------------|
D --------------------------------------------------------------------------|
A -------------------3---------3--------------------------------------------|
D -2---------------------------------------0-----------------0--------------|


Riff six continued
e -------------3------------------------------------------------------------|
B ----3-----------3---------------------------------------------------------|
G -------0-----------0------------------------------------------------------|
D --------------------------------------------------------------------------|
A ----------3---------------------------------------------------------------|
D -2------------------------------------------------------------------------|

Riff seven (5 times)
e --------------------------------------------------------------------------|
B --------------------------------------------------------------------------|
G --------------------------------------------------------------------------|
D -----------------7-7-7-7-----5-5-5-5-----8-8-8-8--------------------------|
A ---------5-5-5-5---------------------6-6-------------4/4------1-----------|
D -0-0-0-0-----------------6-6---------------------0-0-3/4-0-0--1-----------|
   m m m m m m m m                                 m m     m m


Riff seven continued
e --------------------------------------------------------------------------
B --------------------------------------------------------------------------
G ---------------------------------------7/8//7-----------------------------
D -----------------7-7-7-7------3--5-----x-x--x--------------------------
A ---------5-5-5-5--------------1--3-----5/6//5-----------------------------
D -0-0-0-0-----------------0-0-------------------0--*3----------------------

Riff two
e --------------------------------------------------------------------------|
B --------------------------------------------------------------------------|
G --------------------------------------------------------------------------|
D ----------------------------3--3--3---------------------------------------|
A -0--------0-----1-----0-----1--0--1---------------------------------------|
D -0--0--0--0--0--1--0--0--0-----------3/6--*6------------------------------|
      m  m     m     m     m

Riff three
e --------------------------------------------------------------------------|
B --------------------------------------------------------------------------|
G --------------------------------------------------------------------------|
D ----------------------------3--3--3---------------------------------------|
A -0--------0-----1-----0-----1--0--1--1/4--*4------------------------------|
D -0--0--0--0--0--1--0--0--0------------------------------------------------|
      m  m     m     m     m

 Riff two
e --------------------------------------------------------------------------|
B --------------------------------------------------------------------------|
G --------------------------------------------------------------------------|
D ----------------------------3--3--3---------------------------------------|
A -0--------0-----1-----0-----1--0--1---------------------------------------|
D -0--0--0--0--0--1--0--0--0-----------3/6--*6------------------------------|
      m  m     m     m     m

 Riff four
e --------------------------------------------------------------------------|
B --------------------------------------------------------------------------|
G --------------------------------------------------------------------------|
D ----------------------------3--3--3--3/6--6//-----------------------------|
A -0--------0-----1-----0-----1--0--1--1/4--4//-----------------------------|
D -0--0--0--0--0--1--0--0--0------------------------------------------------|
      m  m  m  m     m     m

Riff six (4 times)
e ----------3---------------------2-----------------0-----------------------|
B ----3--------3---------3-----------3--------3--------3--------------------|
G -------0--------0---------0-----------0--------2--------2-----------------|
D --------------------------------------------------------------------------|
A -------------------3---------3--------------------------------------------|
D -2---------------------------------------0-----------------0--------------|

Riff six continued
e -------------3------------------------------------------------------------|
B ----3-----------3---------------------------------------------------------|
G -------0-----------0------------------------------------------------------|
D --------------------------------------------------------------------------|
A ----------3---------------------------------------------------------------|
D -2------------------------------------------------------------------------|

Riff eight
D ---0------|
A ---0------|
D ---0------|

Riff nine
e --------------------------------------------------------------------------|
B --------------------------------------------------------------------------|
G -------------------------2------------------------------------------------|
D -----7/8------1-----0-----0-----------------------------------------------|
A -----5/6------1----0-----0----12//----------------------------------------|
D -0-0-----0-0--1----0-----0----12//----------------------------------------|
   m m     m m


Riff ten (4 times)
e --------------------------------------------------------------------------|
B --------------------------------------------------------------------------|
G --------------------------------------------------------------------------|
D -----7/8-------1----------------------------------------------------------|
A -----5/6-------1--0-0--4--3--0--6--3--0--4--3--0--1--3--0--4--3--0--------|
D -0-0-----0-0---1--0-0--4--3--0--6--3--0--4--3--0--1--3--0--4--3--0--------|
   m m     m m      m m  m  m  m  m  m  m  m  m  m  m  m  m  m  m  m


Riff ten continued
e --------------------------------------------------------------------------|
B --------------------------------------------------------------------------|
G --------------------------------------------------------------------------|
D --------------------------------------------------------------------------|
A -6--3--0--4--3--0--1--3---------------------------------------------------|
D -6--3--0--4--3--0--1--3---------------------------------------------------|
   m  m  m  m  m  m  m  m


outro
e ------------------|
B ------------------|
G ------------------|
D -----7/8------1---|
A -----5/6------1---|
D -0-0-----0-0--1---|

That is the whole song in order. please rate! Enjoy!

            
            
Suggest correction
Creating personal tab
Creating personal tab
You can edit any tab online and save it as your Personal.

You can edit, replace or remove any tab part or add personal notes – all changes will be seen only by you.

Personal tabs can be accessed anytime from any device, even offline.
Learn more »
comments
print report bad tab
16 comments total. Showing first comments.
0 reply
stuartlarge 41 Jan 17, 2006 09:36 PM

Tuning is Drop C = C G C F A D
Not perfect, but good try, ill give a 4.

0 reply
bdl1127 10 Jan 18, 2006 09:47 AM

Nice tab. if um like them you shold listen to godsmack

0 reply
Bam_HIM_Bassist 50 Apr 18, 2006 04:24 AM

the pinch harmonics dont seem riight to me..

guest
You may want to rate the tab now too:
select rating
Wanna post a correction for this tab? Suggest correction