Oops, an error
Loading. Please wait.

For You tab

version 1
version 1

Whole song

Interactive

13,153 views 3 this week
4 commentsread comments
1 2 3 4 5
x 5
add to favorites
×
Save as Personal and add changes to this tab that will be seen only by you. Learn more ›
×
You can save this tab as Personal to edit and correct it or add notes. All changes will be seen only by you. Learn more »
launch autoscroll
font size
0
reset
how to read this tab
guitar tuner
edit
Autoscroll
slow
fast
+/-
esc
set tempo
stop
Killswitch Engage

As Daylight Dies - 2006
For You(C G C F A D)

by fernando ite..
chilean engaging


D |----------------------------------------------------------|
A |----------------------------------------------------------|
F |----------------------------------------------------------|
C |-5-4-------4-3-------5-4-------4-3-----------6-5----------|  x6
G |-3-2--020--2-1--020--3-2--020--2-1--020------4-3----------|
C |------020-------020-------020-------020-------------------|


D |----------------------------------------------|
A |----------------------------------------------|
F |--------------------------------------5--7/---|    X2
C |-0-00-0---0-00-0---0-00-0---0-3-0-5-0-3--5/---|
G |-0-00-0---0-00-0---0-00-0---0-3-0-5-0---------|
C |-0-00-0---0-00-0---0-00-0---0-3-0-5-0---------|                                      M


D |----------------------------------------------|
A |----------------------------------------------|
F |--------------------------------------5--7/---|
C |-00-0*----00-0*----00-0*----0-3-0-5-0-3--5/---|    X2
G |-00-0*----00-0*----00-0*----0-3-0-5-0---------|
C |-00-0*----00-0*----00-0*----0-3-0-5-0---------|


Chorus

D |-----------------------------------|
A |-----------------------------------|
F |-----------------------------------| X3
C |--------------------10--8---7h8h7--|
G |----8----8---8---8-----------------|
C |-00---00---0---0-------------------|


D |----------------------------------------|
A |----------------------------------------|
F |----------------------------------------|
C |--5/7---5-------------------------------|
G |--3/5---3----------------------3----5---|
C |-----------5----3---0--3---5------------|


D |----------------------------------------------------------|
A |----------------------------------------------------------|
F |----------------------------------------------------------|
C |-5-4-------4-3-------5-4-------4-3-----------6-5----------|  x4
G |-3-2--020--2-1--020--3-2--020--2-1--020------4-3----------|
C |------020-------020-------020-------020-------------------|


D |----------------------------------------------|
A |----------------------------------------------|
F |--------------------------------------5--7/---|    X2
C |-0-00-0---0-00-0---0-00-0---0-3-0-5-0-3--5/---|
G |-0-00-0---0-00-0---0-00-0---0-3-0-5-0---------|
C |-0-00-0---0-00-0---0-00-0---0-3-0-5-0---------|

D |----------------------------------------------|
A |----------------------------------------------|
F |--------------------------------------5--7/---|
C |-00-0*----00-0*----00-0*----0-3-0-5-0-3--5/---|    X2
G |-00-0*----00-0*----00-0*----0-3-0-5-0---------|
C |-00-0*----00-0*----00-0*----0-3-0-5-0---------|

chorus

D |--------------------------|
A |--------------------------|
F |--------------------------|
C |---5----------------------| X3
G |-0-3--5--3---------3--5---|
C |-0----5--3---3--5---------|

D|-----------|--------------------------------------------------------------------------|
A|-----------|--------------------------------------------------------------------------|
F|-----------|------10---10--7---------7----7------------7----7-----------5----5--------|
C|---5-------|---------------------------------8------------------8---------------7-----|
G|-0-3--1*---|-5-5-----5----------5-5-----5--------5-5-----5----------5-5----5----------|
C|-0----1*---|--------------------------------------------------------------------------|


D |------------------------------------------------------------------|
A |------------------------------------------------------------------|
F |--------------------------7---------------7-----------------------|
C |------7----7-8------8-------8--------8------8----------7----7-8---|X3
G |-5-5-----5------5-5----5--------5-5-----5---------5-5-----5-------|
C |------------------------------------------------------------------|


play this notes.. according to the song...
D |-----------------------------------------------------------|
A |-----------------------------------------------------------|
F |---10---9----10--9-----------------------------------------|
C |-----------------------------------------------------------|
G |---8----7----8---7-----------------------------------------|
C |-----------------------------------------------------------|

D |----------------------------------------------------------|
A |----------------------------------------------------------|
F |----------------------------------------------------------|
C |-5-4-------4-3-------5-4-------4-3------------------------|
G |-3-2--020--2-1--020--3-2--020--2-1--020----0--------------|
C |------020-------020-------020-------020----0--------------|

chorus

            
            
Suggest correction
Creating personal tab
Creating personal tab
You can edit any tab online and save it as your Personal.

You can edit, replace or remove any tab part or add personal notes – all changes will be seen only by you.

Personal tabs can be accessed anytime from any device, even offline.
Learn more »
comments
print report bad tab
4 comments total. Showing first comments.
+1 reply
justbreathing10 155 Oct 22, 2006 09:55 AM

Pretty good tab, but I have a few corrections

Intro/Verse
C|-4/5/4-------3/4/3-------4/5/4-------3/4/3-------6---5---|
G|-2/3/2-0-2-0-1/2/1-0-2-0-2/3/2-0-2-0-1/2/1-0-2-0-4-0-3-0-|
C|-------0-2-0-------0-2-0-------0-2-0-------0-2-0---0---0-|
PM . . . . . . . . . . . . . .

Chorus
C|--------------------10--8---7h8h7--|
G|----8----8---8---8-----------------|
C|-88---88---8---8---8---8--8--------|
PM .. .. . . . . .

C|--------------------10--8---7h8h7--|
G|----8----8---8---8-----------------|
C|-55---55---5---5---5---5--5--------|
PM .. .. . . . . .

C|--------------------10--8---7h8h7--|
G|----8----8---8---8-----------------|
C|-00---00---0---0---0---0--0--------|
PM .. .. . . . . .

In the chorus, one guy does the high part on the 4th C-string, while the other palm mutes the root on the 6th C-string.

0 reply
justbreathing10 155 Oct 22, 2006 09:56 AM

All of the palm mutes go messed. They only belong on the 6 string. Sorry.

0 reply
snook24 10 Apr 16, 2008 04:40 PM

where's the rthyme to the bridge?

guest
Wanna post a correction for this tab? Suggest correction