Oops, an error
Loading. Please wait.

I Would Do Anything bass

version 1
version 1

Whole song

Interactive

684 views 1 this week
no commentswrite comment
1 2 3 4 5
3 more votes to show rating
add to favorites
×
Save as Personal and add changes to this tab that will be seen only by you. Learn more ›
×
You can save this tab as Personal to edit and correct it or add notes. All changes will be seen only by you. Learn more »
launch autoscroll
font size
0
reset
guitar tuner
edit
Autoscroll
slow
fast
+/-
esc
set tempo
stop
Artist: Killswitch Engage
Album: Killswitch Engage (2nd Self-titled album)
Song: I Would Do Anything
Tuning: Drop C (CGCF)

Tab by Jamal Williams (jamora1124@hotmail.com)

This is my first tab ever, so it might be incorrect, it might be correct. Idk, give it a
The way I play it seems to be a bit more fun for me. One Note you should have, is that
rhythm isn’t exactly tabbed out correctly so you’ll have to feel out the music. All the 
are there, it’s just up to you to figure them out and put them together. Another
is that the bass in the song basically follows rhythm guitar completely, so there's 
too unique about this song.

Intro (Rest a few bars until the Bass and Rhythm Guitar comes in. Also, you play the 3rd
and then hammer the 5th and then another 5)
F -------------------------------------------------------|
C -------------------------------------------------------|
G ----------1--------3h55--------------------------------|
C ---3-5-6-----0000--------------------------------------| x1

F -------------------------------------------------------|
C -------------------------------------------------------|
G -----------------------------------------1-------3h55--|
C -010---000---010--—000~---010-----3-5-6----0000--------| x2

F -------------------------------------------------------|
C -------------------------------------------------------|
G ------------------------------------1-------3h55-------|
C -010---0000---010---0000~-----3-5-6----0000------------| x1

Verse (I didn’t exactly tab the rhythm for this correctly but, like I said, “Feel” your
out)
F -------------------------------------------------------|
C -------------------------------------------------------|
G --0-1---------------0-1--------------3-5---------------|
C -0-0--000000000000-0-0--000000000000--0----------------| x2

Chorus
F -------------------------------------------------------|
C -------------------------------------------------------|
G -------------------------------------------------------|
C -0~---77-33~-33--55--88--00000000----------------------| x1

F -------------------------------------------------------|
C -------------------------------------------------------|
G -------------------------------------------------------|
C -0~---77-33~-33--55-0-0-0------------------------------| x1

(Then it’s back to the Intro Riff, except it’s played slightly different.)

F -------------------------------------------------------|
C -------------------------------------------------------|
G ------------------------------------1-------3h55-------|
C -010---0000---010---0000~-----3-5-6----0000------------| x2

Bridge (I guess you can call it that. This is my favorite part of the song. Feel the
of the drums to figure out when to come in. I slightly bend the string down just because
fun to play like that. You don’t have to play with the bend.)

F -------------------------------------------------------|
C -------------------------------------------------------|
G -------------------------------------------------------|
C -0-3-0-5-0-6-0-5b~--0-0-8-0-7-3-5--00000000------------| x4

(Then it’s the end. They use the Chorus riff but, it’s pretty much the same as the
Chorus except…well, the song ends.)

Chorus
F -------------------------------------------------------|
C -------------------------------------------------------|
G -------------------------------------------------------|
C -0~---77-33~-33--55--88--00000000----------------------| x1

F -------------------------------------------------------|
C -------------------------------------------------------|
G -------------------------------------------------------|
C -0~---77-33~-33--55-0-0-0------------------------------| x1

Enjoy your tab. If you have any corrections, please contact me at my email or on my
account. Thank you.

            
            
Suggest correction
Creating personal tab
Creating personal tab
You can edit any tab online and save it as your Personal.

You can edit, replace or remove any tab part or add personal notes – all changes will be seen only by you.

Personal tabs can be accessed anytime from any device, even offline.
Learn more »
Give kudos to tab author, rate the tab!
1 2 3 4 5
comments
print report bad tab
guest
You may want to rate the tab now too:
select rating
Wanna post a correction for this tab? Suggest correction