Oops, an error
Loading. Please wait.

In Due Time bass

version 1
version 1

Whole song

Interactive

6,758 views 18 this week
no commentswrite comment
1 2 3 4 5
x 5
add to favorites
×
Save as Personal and add changes to this tab that will be seen only by you. Learn more ›
×
You can save this tab as Personal to edit and correct it or add notes. All changes will be seen only by you. Learn more »
launch autoscroll
font size
0
reset
guitar tuner
backing track
0:00
0:00
edit
Autoscroll
slow
fast
+/-
esc
set tempo
stop
This is my bass tab for "In Due Time" by Killswitch Engage, which is featuered on the 
record "Disarm the Descent".
The tab is not perfect but it sounds pretty good.

Don't forget to rate and have fun to play!

Intro
F|-------|
C|-------|
G|-------|
C|0\12/0~|

Riff 1a (not sure, in which rhythm the bass plays, but it sounds like this)
F|----------------|----------------|----------------|----0-----------|
C|----------------|----------------|----------------|------4-1-4-1~~~|
G|----------------|----------------|----------------|----------------|
C|0-000-000-000-0-|0-000-000-000-0-|0-000-000-000-0-|0~~~------------|
  E SSE SSE SSE E  E SSE SSE SSE E  E SSE SSE SSE E  Q   E E E E Q

F|----------------|----------------|----------------|----------------|
C|----------------|----------------|----------------|----------------|
G|----------------|----------------|----------------|--------2-1-----|
C|0-000-000-000-0-|0-000-000-000-0-|0-000-000-000-0-|0~~~2-3-----3-2-|
  E SSE SSE SSE E  E SSE SSE SSE E  E SSE SSE SSE E  Q   E E E E E E

F|----------------|----------------|----------------|----0-----------|
C|----------------|----------------|----------------|------4-1-4-1~~~|
G|----------------|----------------|----------------|----------------|
C|0-000-000-000-0-|0-000-000-000-0-|0-000-000-000-0-|0~~~------------|
  E SSE SSE SSE E  E SSE SSE SSE E  E SSE SSE SSE E  Q   E E E E Q

F|----------------|----------------|----------------|----------------|
C|----------------|----------------|----------------|----------------|
G|----------------|----------------|----------------|----------------|
C|0-000-000-000-0-|0-000-000-000-0-|0-000-000-000-0-|0~~~---------12/|
  E SSE SSE SSE E  E SSE SSE SSE E  E SSE SSE SSE E  Q   H       E E

Riff 1b (2x)
F|----------------|----------------|----------------|----------------|
C|----------------|----------------|----------------|3-2-0-5~~~3-2---|
G|----------------|----------------|----------------|--------------3-|
C|0-0-0-3-0-2-0-2-|1-0-0-0-000-000-|2-0-0-3-0-2-0-0-|----------------|
  E E E E E E E E  E E E E SSE SSE  E E E E E E E E  E E E Q   E E E

F|----------------|----------------|----------------|----------------|
C|----------------|----------------|----------------|----------------|
G|----------------|----------------|----------------|1-1-1-1-3-3-3-3-|
C|0-0-0-3-0-2-0-2-|1-0-0-0-000-000-|1-0-0-3-0-2-0-0-|----------------|
  E E E E E E E E  E E E E SSE SSE  E E E E E E E E  E E E E E E E E

Chorus 1
F|------3-------3-|------5-------5-|----------------|----------------|
C|----3---3---3---|----5---5---5---|----------------|----------------|
G|1~~~------1-----|3~~~------3-----|----------------|--------0~~~1-3-| 3x
C|----------------|----------------|0~~~~~~~0~~~3~~~|3~~~5~~~--------|
  Q   E E E E E E  Q   E E E E E E  H       Q   Q    Q   Q   Q   E E

F|------3-------3-|------5-------5-|----------------|----------------|
C|----3---3---3---|----5---5---5---|----------------|----------------|
G|1~~~------1-----|3~~~------3-----|----------------|----------------|
C|----------------|----------------|0~~~~~~~0~~~3~~~|3~~~5~~~--------|
  Q   E E E E E E  Q   E E E E E E  H       Q   Q    Q   Q   H

Riff 2a
F|----------------|----------------|----------------|----0-----------|
C|----------------|----------------|----------------|------4-1-4-1~~~|
G|----------------|----------------|----------------|----------------|
C|0-000-000-000-0-|0-000-000-000-0-|0-000-000-000-0-|0~~~------------|
  E SSE SSE SSE E  E SSE SSE SSE E  E SSE SSE SSE E  Q   E E E E Q

F|----------------|----------------|----------------|----------------|
C|----------------|----------------|----------------|----------------|
G|----------------|----------------|----------------|--------2-1-----|
C|0-000-000-000-0-|0-000-000-000-0-|0-000-000-000-0-|0~~~2-3-----3-2-|
  E SSE SSE SSE E  E SSE SSE SSE E  E SSE SSE SSE E  Q   E E E E E E

F|----------------|----------------|----------------|----0-----------|
C|----------------|----------------|----------------|------4-1-4-1~~~|
G|----------------|----------------|----------------|----------------|
C|0-000-000-000-0-|0-000-000-000-0-|0-000-000-000-0-|0~~~------------|
  E SSE SSE SSE E  E SSE SSE SSE E  E SSE SSE SSE E  Q   E E E E Q

F|----------------|----------------|----------------|-----------------|
C|----------------|----------------|----------------|-----------------|
G|----------------|----------------|----------------|-----------------|
C|0-000-000-000-0-|0-000-000-000-0-|0-000-000-000-0-|0-000-000-000-12/|
  E SSE SSE SSE E  E SSE SSE SSE E  E SSE SSE SSE E  E SSE SSE SSE E

Riff 2b = Riff 1b

Chorus 2
F|------3-------3-|------5-------5-|----------------|----------------|
C|----3---3---3---|----5---5---5---|----------------|----------------|
G|1~~~------1-----|3~~~------3-----|----------------|--------0~~~1-3-| 2x
C|----------------|----------------|0~~~~~~~0~~~3~~~|3~~~~5~~~-------|
  Q   E E E E E E  Q   E E E E E E  H       Q   Q    Q   Q   Q   E E

F|----------------|----------------|----------------|----------------|
C|----------------|----------------|----------------|----------------|
G|1~~~1-1-1-1-1-1-|3~~~3-3-3-3-3-3-|----------------|----------------|
C|----------------|----------------|0~~~0-000-000-00|0-000-000-000-0-|
  Q   E E E E E E  Q   E E E E E E  Q   E SSE SSE SS E SSE SSE SSE E

F|----------------|----------------|----------------|----------------|
C|----------------|----------------|----------------|----------------|
G|1~~~1-1-1-1-1-1-|3~~~3-3-3-3-3-3-|----------------|----------------|
C|----------------|----------------|0~~~0-000-000-00|0-000-000-0-0-0-|
  Q   E E E E E E  Q   E E E E E E  Q   E SSE SSE SS E SSE SSE E E E

Bridge (2x)
F|----------------|----------------|----------------|----------------|
C|----------------|----------------|----------------|----------------|
G|----------------|----------------|----------------|111-1-1---------|
C|000-0-0---------|----------000-0-|0---------------|--------333-3-3-|
  SSE E E H        H       E SSE E  E E H.           SSE E E SSE E E

F|----------------|----------------|----------------|----------------|
C|----------------|----------------|----------------|----------------|
G|----------------|----------------|----------------|111-1-1-333-3-3-|
C|000-0-0---------|----------000-0-|0---------------|----------------|
  SSE E E H        H       E SSE E  E E H.           SSE E E SSE E E

Bass while Guitar Solo
F|----------------|----------------|----------------|----------------|
C|----------------|----------------|----------------|----------------|
G|----------------|----------------|1~~~~~~~~~------|3~~~~~~~~~------| 3x
C|0~~~~~~~~~0-0-0-|3~~~~~~~~~0-0-0-|----------3-3-3-|----------3-3-3-|
  H       E E E E  H       E E E E  H       E E E E  H       E E E E

F|----------------|----------------|----------------|----------------|
C|----------------|----------------|----------------|----------------|
G|----------------|----------------|1~~~~~~~~~------|3-3-3-3-3-3-5-5-|
C|0~~~~~~~~~0-0-0-|3~~~~~~~~~0-0-0-|----------3-3-3-|----------------|
  H       E E E E  H       E E E E  H       E E E E  E E E E E E E E

Chorus 3
F|----------------|----------------|----------------|----------------|
C|----------------|----------------|----------------|----------------|
G|----------------|----------------|----------------|--------0~~~1-3-|
C|8~~~/-----------|----------------|0~~~~~~~0~~~3~~~|3~~~~5~~~-------|
  Q   H.           F                H       Q   Q    Q   Q   Q   E E

F|------3-------3-|------5-------5-|----------------|----------------|
C|----3---3---3---|----5---5---5---|----------------|----------------|
G|1~~~------1-----|3~~~------3-----|----------------|--------0~~~1-3-|
C|----------------|----------------|0~~~~~~~0~~~3~~~|3~~~~5~~~-------|
  Q   E E E E E E  Q   E E E E E E  H       Q   Q    Q   Q   Q   E E

F|----------------|----------------|----------------|----------------|
C|----------------|----------------|----------------|----------------|
G|1~~~1-1-1-1-1-1-|3~~~3-3-3-3-3-3-|----------------|----------------| 2x
C|----------------|----------------|0~~~0-000-000-00|0-000-000-000-0-|
  Q   E E E E E E  Q   E E E E E E  Q   E SSE SSE SS E SSE SSE SSE E

Outro
F|----------------|----------------|
C|----------------|----------------|
G|----------------|----------------|
C|0---------------|0-0-0-12/~~~~~~~|
  E E H.           E E E H       E

If you like that tab, you should check out other contributions!

F = Full note
H = Half note
Q = Quarter note
E = Eighth note
S = Sixteenth note
. = makes the note a half longer
\ = Slide up
/ = Slide down
h = Hammer-on
p = Pull-off
b = Bending
X = Mute note

            
            
Suggest correction
Creating personal tab
Creating personal tab
You can edit any tab online and save it as your Personal.

You can edit, replace or remove any tab part or add personal notes – all changes will be seen only by you.

Personal tabs can be accessed anytime from any device, even offline.
Learn more »
comments
print report bad tab
guest
You may want to rate the tab now too:
select rating
Wanna post a correction for this tab? Suggest correction