Oops, an error
Loading. Please wait.

In Due Time intro tab

version 1
version 1

Intro

Whole song

Interactive

64,863 views 9 this week
6 commentsread comments
1 2 3 4 5
x 16
add to favorites
×
Save as Personal and add changes to this tab that will be seen only by you. Learn more ›
×
You can save this tab as Personal to edit and correct it or add notes. All changes will be seen only by you. Learn more »
launch autoscroll
font size
0
reset
how to read this tab
guitar tuner
backing track
0:00
0:00
edit
Autoscroll
slow
fast
+/-
esc
set tempo
stop
KILLSWITCH ENGAGE

IN DUE TIME INTRO

CGCFAD

TABBED BY andherembrace


***I will continue to update this when some better live versions become available 
so i can see what exactly they are doing during the chorus

this tab will get you to 0:45

I also have the solo done if anyone is interested

http://tabs.ultimate-guitar.com/k/killswitch_engage/in_due_time_solo_tab.htm


D|----------------------------------------------------------------------------------|
A|----------------------------------------------------------------------------------|
F|----------------------------------------------------------------------------------|
C|----------------------------------------------------------------------------------|
G|-----------------^---------^-------------^---------^-------------^---------^------|
C|0-/19\--0--0-0-10-12-0-0-10-12-0-0-0-0-10-13-0-0-10-13-0-0-0-0-13-10-0-0-10-13-12~|
           * *       * *       * * * *       * *       * * * *       * *

D|----------------------------------------------------|
A|----------------------------------------------------|
F|----------------------------------12-11--11-8----7--|
C|-----------------------------------X-X----X-X----X--|
G|-------^---------^----------------10\9----9\6----5--|
C|-0-0-10-12-0-0-10-12-0-0-0-0-0--0-------0------0----|
 * *       * *       * * * *    *       *      * ~

D|---------------------------------------------------------------------------|
A|---------------------------------------------------------------------------|
F|---------------------------------------------------------------------------|
C|---------------------------------------------------------------------------|
G|----------^---------^-------------^---------^-------------^---------^------|
C|-0--0-0-10-12-0-0-10-12-0-0-0-0-10-13-0-0-10-13-0-0-0-0-13-10-0-0-10-13-12~|
    * *       * *       * * * *       * *       * * * *       * *

D|----------------------------------------------|
A|----------------------------------------------|
F|----------------------------------------------|
C|--------------------------------------4-3-----|
G|-------^---------^--------------0-1-3-2\1-3-1-|
C|-0-0-10-12-0-0-10-12-0-0-0-0-0--0-1-3-----3-1-|
 * *       * *       * * * *    * * *     * *              


(0:12)

  L
D|---------------------------------------------------------------------------|
A|---------------------------------------------------------------------------|
F|---------------------------------------------------------------------------|
C|---------------------------------------------------------------------------|
G|----------^---------^-------------^---------^-------------^---------^------|
C|-0--0-0-10-12-0-0-10-12-0-0-0-0-10-13-0-0-10-13-0-0-0-0-13-10-0-0-10-13-12~|
    * *       * *       * * * *       * *       * * * *       * *
  R
D|---------------------------------------------------------------------------|
A|---------------------------------------------------------------------------|
F|---------------------------------------------------------------------------|
C|----------^---------^-------------^---------^-------------^---------^------|
G|--------10-12-----10-12---------10-13-----10-13---------13-10-----10-13-12~|
C|-0--0-0-------0-0-------0-0-0-0-------0-0-------0-0-0-0-------0-0----------|
      * *       * *       * * * *       * *       * * * *       * *



  L
D|----------------------------------------------------|
A|----------------------------------------------------|
F|----------------------------------12-11--11-8----7--|
C|-----------------------------------X-X----X-X----X--|
G|-------^---------^----------------10\9----9\6----5--|
C|-0-0-10-12-0-0-10-12-0-0-0-0-0--0-------0------0----|
   * *       * *       * * * *    *       *      * ~

  R
D|-----------------------------------------------------|
A|-----------------------------------------------------|
F|---------------------------------15-14---14-12--11---|
C|-------^---------^----------------X--X----X--X---X---|
G|-----10-12-----10-12-------------13\12---12\10---9---|
C|-0-0-------0-0-------0-0-0-0-0--0------0-------0-----|
   * *       * *       * * * *    *      *       * ~


  L
D|---------------------------------------------------------------------------|
A|---------------------------------------------------------------------------|
F|---------------------------------------------------------------------------|
C|---------------------------------------------------------------------------|
G|----------^---------^-------------^---------^-------------^---------^------|
C|-0--0-0-10-12-0-0-10-12-0-0-0-0-10-13-0-0-10-13-0-0-0-0-13-10-0-0-10-13-12~|
      * *       * *       * * * *       * *       * * * *       * *
  R
D|---------------------------------------------------------------------------|
A|---------------------------------------------------------------------------|
F|---------------------------------------------------------------------------|
C|----------^---------^-------------^---------^-------------^---------^------|
G|--------10-12-----10-12---------10-13-----10-13---------13-10-----10-13-12~|
C|-0--0-0-------0-0-------0-0-0-0-------0-0-------0-0-0-0-------0-0----------|
    * *       * *       * * * *       * *       * * * *       * *


  L
D|-------------------------------------------------|
A|-------------------------------------------------|
F|-------------------------------------------------|
C|-------------------------------------------------|
G|-------^---------^--------------0----------------|
C|-0-0-10-12-0-0-10-12-0-0-0-0-0--0---------0-12\--|
   * *       * *       * * * *    *               
  R
D|-------------------------------------------------|
A|-------------------------------------------------|
F|-------------------------------------------------|
C|-------^---------^--------------------4-3--------|
G|-----10-12-----10-12------------0-1-3-2\1--------|
C|-0-0-------0-0-------0-0-0-0-0--0-1-3-----0-12\--|
   * *       * *       * * * *    * * *     *


(0:23)
                                                   
D|--------------------------------------------------------------------|
A|--------------------------------------------------------------------|
F|-----------------------------------------------------5-4---PH-------|
C|-0-----3---1---1-1-0-----------------0-----3---1----/3-2---5~-3-2---|
G|-0-----3---1---1-1-0-----------------0-----3---1------------------3-|
C|-0-0-0-3-0-1-0-1-1-0-0-0-0-0-0-0-0-0-0-0-0-3-0-1-0-------0----------|
   * *   *   *       * * * * * * * *   * *   *   *       *

                                                   
D|------------------------------------------------------------------------------|
A|------------------------------------------------------------------------------|
F|-----------------------------------------------------10-10-10-10-12--12-12-12-|
C|-0-----3---1---1-1-0-----------------0-----3---1----/8---8--8--8/10--10-10-10-|
G|-0-----3---1---1-1-0-----------------0-----3---1------------------------------|
C|-0-0-0-3-0-1-0-1-1-0-0-0-0-0-0-0-0-0-0-0-0-3-0-1-0----------------------------|
   * *   *   *       * * * * * * * *   * *   *   *      


D|--------------------------------------------------------------------|
A|--------------------------------------------------------------------|
F|-----------------------------------------------------5-4---PH-------|
C|-0-----3---1---1-1-0-----------------0-----3---1----/3-2---5~-3-2---|
G|-0-----3---1---1-1-0-----------------0-----3---1------------------3-|
C|-0-0-0-3-0-1-0-1-1-0-0-0-0-0-0-0-0-0-0-0-0-3-0-1-0-------0----------|
   * *   *   *       * * * * * * * *   * *   *   *       *

                                                   
D|---------------------------------------------------------------------------|
A|---------------------------------------------------------------------------|
F|-----------------------------------------------------10-10-10-10-12--12-12-|
C|-0-----3---1---1-1-0-----------------0-----3---1----/8---8--8--8/10--10-10-|
G|-0-----3---1---1-1-0-----------------0-----3---1---------------------------|
C|-0-0-0-3-0-1-0-1-1-0-0-0-0-0-0-0-0-0-0-0-0-3-0-1-0-------------------------|
   * *   *   *       * * * * * * * *   * *   *   *


************************************

| /  Slide up
| \  Slide down
| ~  Vibrato
| *  palm mute

************************************

            
            
Suggest correction
Creating personal tab
Creating personal tab
You can edit any tab online and save it as your Personal.

You can edit, replace or remove any tab part or add personal notes – all changes will be seen only by you.

Personal tabs can be accessed anytime from any device, even offline.
Learn more »
comments
print report bad tab
6 comments total. Showing first comments.
+1 reply
JaRRIzZ 112 Apr 15, 2013 03:45 AM

Great tab man

0 reply
aceface666 10 Oct 29, 2014 06:55 AM

wrong at 0:23. there are no power chords played. i bought the actual sheet music. the rest of it is spot on though

0 reply
jasonrauch 10 Feb 19, 2015 10:04 AM

------------------------------------------8-8-8-8-----------------------|
-----10-10-----13-13-------10-10---8--8---5-5h8-8-----------------------|
-----10-10-----12-12-------10-10--10-10---5-5-5-5-----------------------|
----------------------0--0---0--0---0---0-------------------------------|
-8----------10--------0-------------------------------------------------|
-8-8--------10--------0-------------------------------------------------|

Try this for the chorus? Just a basic idea of the positions for the chorus.

guest
You may want to rate the tab now too:
select rating
Wanna post a correction for this tab? Suggest correction