Oops, an error
Loading. Please wait.

Life To Lifeless tab

version 1
version 1

Whole song

Interactive

13,595 views 3 this week
7 commentsread comments
1 2 3 4 5
x 7
add to favorites
×
Save as Personal and add changes to this tab that will be seen only by you. Learn more ›
×
You can save this tab as Personal to edit and correct it or add notes. All changes will be seen only by you. Learn more »
launch autoscroll
font size
0
reset
how to read this tab
guitar tuner
edit
Autoscroll
slow
fast
+/-
esc
set tempo
stop
Song: Life to Lifeless
Artist: Killswitch Engage
Album: Alive or Just Breathing
Tabbed by: Christian / silent_warrior_@hotmail.com

I was looking for KSE tabs but I couldn't find any..so I made this one..and I am currently
working on other ones. I tried my best. Comments welcome.

Tuning: C G C F A D

///X - Scratch string with pick
PM - Palm mute
* - Harmonic
\ - Slide down
/ - Slide up

Intro - Heavy palm mute - Guitar 1
|-----------------------------------------------|
|-----------------------------------------------|
|-----------------------------------------------| x6
|-0-0---0-0---0-0-0-0-0---0-0---0-0---0-0-0-0-0-|
|-0-0---0-0---0-0-0-0-0---0-0---0-0---0-0-0-0-0-|
|-0-0---0-0---0-0-0-0-0---0-0---0-0---0-0-0-0-0-|
PM- -   - -   - - - - -   - -   - -   - - - - - 

Guitar 2
|-----------------|
|-----------------|
|-----------------| x4
|-------3---6---0-|
|-------3---6---0-|
|-///X--3---6---0-|

Verse
|-------------------------------------------------|
|-------------------------------------------------|
|-------------------------------------------------| x4
|-------3-0-0-0-6-0-0-10-12--0--0--0--0-0-0--0--0-|
|-10\3--3-0-0-0-6-0-0-10-12--0--0--0--0-0-0--0--0-|
|-10\3--3-0-0-0-6-0-0-10-12--0--0--0--0-0-0--0--0-|
PM        - - -   - -        -  -  -  - - -  -  -

Fill - Heavy palm mute
|---------------------------------------------------|
|---------------------------------------------------|
|---------------------------------------------------|x2
|-0-0---0-0---0-0-0-0-0-0---0-0---0-0---0-0-0-0-0-0-|
|-0-0---0-0---0-0-0-0-0-0---0-0---0-0---0-0-0-0-0-0-|
|-0-0---0-0---0-0-0-0-0-0---0-0---0-0---0-0-0-0-0-0-|
PM- -   - -   - - - - - -   - -   - -   - - - - - -

Verse
|--------------------------------------------------------|
|--------------------------------------------------------|
|--------------------------------------------------------| x2
|------0-0---0-0---0-0-0-0-0-0---0-0---0-0---0-0-0-0-0-0-|
|-/10--0-0---0-0---0-0-0-0-0-0---0-0---0-0---0-0-0-0-0-0-|
|-/10--0-0---0-0---0-0-0-0-0-0---0-0---0-0---0-0-0-0-0-0-|
PM     - -   - -   - - - - - -   - -   - -   - - - - - -

Verse
|-------------------------------------------------|
|-------------------------------------------------|
|-------------------------------------------------| x4
|-------3-0-0-0-6-0-0-10-12--0--0--0--0-0-0--0--0-|
|-10/3--3-0-0-0-6-0-0-10-12--0--0--0--0-0-0--0--0-|
|-10/3--3-0-0-0-6-0-0-10-12--0--0--0--0-0-0--0--0-|
PM        - - -   - -        -  -  -  - - -  -  -

Chorus
|--------------------------------------------------------------|
|-----------------------------------------------------*9*9*9*9-|
|--------------------------------------------------------------| x1
|-10/12-10-0-0-3---3-0-0-3-3---10/12-10-0-0-0---0--0-----------|
|-10/12-10-0-0-3---3-0-0-3-3---10/12-10-0-0-0---0--0-----------|
|-10/12-10-0-0-3---3-0-0-3-3---10/12-10-0-0-0---0--0-----------|
PM         - -       - -                - -        -

Chorus
|--------------------------------------------------------|
|--------------------------------------------------------|
|--------------------------------------------------------| x1
|-10/12-10-0-0-3---3-0-0-3-3---10/12-10-0-0-0---0--0-0-0-|
|-10/12-10-0-0-3---3-0-0-3-3---10/12-10-0-0-0---0--0-0-0-|
|-10/12-10-0-0-3---3-0-0-3-3---10/12-10-0-0-0---0--0-0-0-|
PM         - -       - -                - -        - -

Bridge
|----------------------------------------------------------|
|----------------------------------------------------------|
|----------------------------------------------------------|
|----------------------------------------------------------| x4
|--------------------0-0-0-0-0-0-0-0------------------3--6-|
|-5h7----------------0-0-0-0-0-0-0-0--5h7-------------3--6-|
|-----5h7-3h5-1h3-0--0-0-0-0-0-0-0-0------5h7-3h5-1h3-3--6-|
PM                   - - - - - - - -

|----------------------------------------------|       |------|
|----------------------------------------------|       |------|
|----------------------------------------------|       |------|
|----------------------------------------------| x4    |------| x1
|-----------------------------------------3--6-|       |--\8--|
|-5h7---------------------5h7-------------3--6-|       |--\8--|
|-----5h7-3h5-1h3-0-----------5h7-3h5-1h3-3--6-|       |--\8--|

Guitar 1                      Guitar 2
|-------------------------|   |-----------|               |-------------------|
|-------------------------|   |-----------|               |-------------------|
|-------------------------|   |-----------| x4  Then this |-------------------| x1
|-0-0-0-0-0-0-0-0-0-0-0-0-|   |-3---6---0-|               |-0-0--0-0--0-0-0-0-|
|-0-0-0-0-0-0-0-0-0-0-0-0-|   |-3---6---0-|               |-0-0--0-0--0-0-0-0-|
|-0-0-0-0-0-0-0-0-0-0-0-0-|   |-3---6---0-|               |-0-0--0-0--0-0-0-0-|    
PM- - - - - - - - - - - -                                   - -  - -  - - - -    

Verse
|-------------------------------------------------|
|-------------------------------------------------|
|-------------------------------------------------| x4
|-------3-0-0-0-6-0-0-10-12--0--0--0--0-0-0--0--0-|
|-10/3--3-0-0-0-6-0-0-10-12--0--0--0--0-0-0--0--0-|
|-10/3--3-0-0-0-6-0-0-10-12--0--0--0--0-0-0--0--0-|
PM        - - -   - -        -  -  -  - - -  -  -      

Chorus
|--------------------------------------------------------------|
|-----------------------------------------------------*9*9*9*9-|
|--------------------------------------------------------------| x1
|-10/12-10-0-0-3---3-0-0-3-3---10/12-10-0-0-0---0--0-----------|
|-10/12-10-0-0-3---3-0-0-3-3---10/12-10-0-0-0---0--0-----------|
|-10/12-10-0-0-3---3-0-0-3-3---10/12-10-0-0-0---0--0-----------|
PM         - -       - -                - -        -

|--------------------------------------------------------|
|--------------------------------------------------------|
|--------------------------------------------------------| x1
|-10/12-10-0-0-3---3-0-0-3-3---10/12-10-0-0-0---0--0-0-0-|
|-10/12-10-0-0-3---3-0-0-3-3---10/12-10-0-0-0---0--0-0-0-|
|-10/12-10-0-0-3---3-0-0-3-3---10/12-10-0-0-0---0--0-0-0-|
PM         - -       - -                - -        - -    

|--------------------------------------------------------------|
|-----------------------------------------------------*9*9*9*9-|
|--------------------------------------------------------------| x1
|-10/12-10-0-0-3---3-0-0-3-3---10/12-10-0-0-0---0--0-----------|
|-10/12-10-0-0-3---3-0-0-3-3---10/12-10-0-0-0---0--0-----------|
|-10/12-10-0-0-3---3-0-0-3-3---10/12-10-0-0-0---0--0-----------|
PM         - -       - -                - -        - 

|--------------------------------------------------------|
|--------------------------------------------------------|
|--------------------------------------------------------| x1
|-10/12-10-0-0-3---3-0-0-3-3---10/12-10-0-0-0---0--0-0-0-|
|-10/12-10-0-0-3---3-0-0-3-3---10/12-10-0-0-0---0--0-0-0-|
|-10/12-10-0-0-3---3-0-0-3-3---10/12-10-0-0-0---0--0-0-0-|
PM         - -       - -                - -        - -    

Outro
|----------------------------------------------------------|      |------|
|----------------------------------------------------------|      |------|
|----------------------------------------------------------| x4   |------| x1
|----------------------------------------------------------|      |------|
|--------------------0-0-0-0-0-0-0-0------------------3--6-|      |--\8--|
|-5h7----------------0-0-0-0-0-0-0-0--5h7-------------3--6-|      |--\8--|
|-----5h7-3h5-1h3-0--0-0-0-0-0-0-0-0------5h7-3h5-1h3-3--6-|      |--\8--|
PM                   - - - - - - - - 
Suggest correction
Creating personal tab
Creating personal tab
You can edit any tab online and save it as your Personal.

You can edit, replace or remove any tab part or add personal notes – all changes will be seen only by you.

Personal tabs can be accessed anytime from any device, even offline.
Learn more »
comments
print report bad tab
7 comments total. Showing first comments.
0 reply
Tropical 10 Oct 03, 2002 08:00 PM

on guitar 2 in the intro and the verses im pretty sure the D#s (3s) are Fs (5s)
that is all
the rest all seemes to be in order
well done

0 reply
Tropical 10 Oct 03, 2002 08:00 PM

i think the 10 in the verses is just open sorry i did this twice i noticed it later

0 reply
jimmy_hill1001 0 Nov 20, 2002 07:00 PM

|---------------------------------------
|---------------------------------------
|---------------------------------------
|--------------------------9-----------
|-----7-8-2---7-2-2-8-2-2--7-2-2-2------
|-----5-6-0---5-0-0-6-0-0----0-0-0------
PM- - - - - - - - - - - - - - - - - -
jimmy_hill1001@hotmail.com cant arsed with the rest ha

guest
You may want to rate the tab now too:
select rating
Wanna post a correction for this tab? Suggest correction