Oops, an error
Loading. Please wait.

Light In A Darkened World tab

version 4
version 4

Whole song

7,105 views 6 this week
1 commentread comment
1 2 3 4 5
x 8
add to favorites
×
Save as Personal and add changes to this tab that will be seen only by you. Learn more ›
×
You can save this tab as Personal to edit and correct it or add notes. All changes will be seen only by you. Learn more »
launch autoscroll
font size
0
reset
how to read this tab
guitar tuner
edit
Autoscroll
slow
fast
+/-
esc
set tempo
stop
A Light In a Darkened World - Killswitch Engage

My first tab on UG... Hope you'll like it. I love this song =)

Guitar 1 (C G C F A D)
Guitar 2 (C G C F A D)
Guitar 3 (C G C F A D)

Intro (0:00-0:07)

    PM---|   PM---|    PM|   PM|   PM|
 E  E  E  E  E  E  E  E   E  E  E  E  E  E  E  E   E  E  Q.       E  E  E
|------------------------|------------------------|------------------------|
|------------------------|------------------------|------------------------|
|------------------------|------------------------|---9--7-----------------|
|7--------7--------7-----|10----10----------7--9--|10-------------10-9-----|
|---0--0-----0--0-----0--|---0-----0--8--10-------|---------------------10-|
|------------------------|------------------------|------------------------|
|                        |                        |                        |
|------------------------|------------------------|------------------------|
|------------------------|------------------------|------------------------|
|------------------------|------------------------|------------------------|
|7-----------------------|------------3-----------|------5-----------------|
|7-----------------------|------------3-----------|------5-----------------|
|7-----------------------|------------3-----------|------5-----------------|

    PM---|   PM---|    PM|   PM|   PM|
 E  E  E  E  E  E  E  E   E  E  E  E  E  E  E  E   E  E  Q.       E  E  E
|------------------------|------------------------|------------------------|
|------------------------|------------------------|------------------------|
|------------------------|------------------------|---9--7-----------------|
|7--------7--------7-----|10----10----------7--9--|10-------------10-9-----|
|---0--0-----0--0-----0--|---0-----0--8--10-------|---------------------10-|
|------------------------|------------------------|------------------------|
|                        |                        |                        |
|------------------------|------------------------|------------------------|
|------------------------|------------------------|------------------------|
|------------------------|------------------------|------------------------|
|0-----------------------|------------3-----------|------5-----------------|
|0-----------------------|------------3-----------|------5-----------------|
|0-----------------------|------------3-----------|------5-----------------|

Verse 1 (0:08-0:22)

     PM---|   PM---|    PM|   PM|   PM|                       repeat 4 times
  E  E  E  E  E  E  E  E   E  E  E  E  E  E  E  E   E  E  Q.   E  E  E
|-------------------------|------------------------|---------------------|
|o------------------------|------------------------|--------------------o|
|-------------------------|------------------------|---9--7--------------|
|-7--------7--------7-----|10----10----------7--9--|10---------10-9------|
|o---0--0-----0--0-----0--|---0-----0--8--10-------|-----------------10-o|
|-------------------------|------------------------|---------------------|
|                         |                        |                     | 
|-------------------------|------------------------|---------------------| 
|o------------------------|------------------------|--------------------o|
|-------------------------|------------------------|---12-10-------------|
|-10-------10-------10----|14----14----------10-12-|14---------14-12-----|
|o---0--0-----0--0-----0--|---0-----0--12-14-------|-----------------14-o|
|-------------------------|------------------------|---------------------|

I've seen so much corruption
And it's hard to endure
Living on greed and positions
Is this what were dieing for

Chorus (0:23-0:37)

 W                        E  E  E  E  H            Q     Q     Q     Q     
|------------------------|------------------------|------------------------|
|------------------------|------------------------|------------------------|
|------------------------|------------------------|------------------------|
|/7----------------------|(7)---7--9--10----------|(10)-/12----10----9-----|
|------------------------|---10-------------------|------------------------|
|------------------------|------------------------|------------------------|
|                        |                        |                        |
|------------------------|------------------------|------------------------|
|------------------------|------------------------|------------------------|
|------------------------|------------------------|------------------------|
|7-----------------------|------------10----------|------5-----------------|
|7-----------------------|------------10----------|------5-----------------|
|7-----------------------|------------10----------|------5-----------------|

Now choose this day

 W                        H           Q     Q      Q     Q     Q     Q     
|------------------------|------------------------|------------------------|
|------------------------|------------------------|------------------------|
|------------------------|------------9-----7h9p7-|------------------------|
|------------------------|------------------------|10----9-----10----9-----|
|8-----------------------|(8)---------------------|------------------------|
|------------------------|------------------------|------------------------|
|                        |                        |                        |
|------------------------|------------------------|------------------------|
|------------------------|------------------------|------------------------|
|------------------------|------------------------|------------------------|
|0-----------------------|------------3-----------|5-----------------------|
|0-----------------------|------------3-----------|5-----------------------|
|0-----------------------|------------3-----------|5-----------------------|

Who you will serve
 
W                         E  E  E  E  H            Q     Q     Q     Q     
|------------------------|------------------------|------------------------|
|------------------------|------------------------|------------------------|
|------------------------|------------------------|------------------------|
|/7----------------------|(7)---7--9--10----------|(10)-/12----10----9-----|
|------------------------|---10-------------------|------------------------|
|------------------------|------------------------|------------------------|
|                        |                        |                        |
|------------------------|------------------------|------------------------|
|------------------------|------------------------|------------------------|
|------------------------|------------------------|------------------------|
|7-----------------------|------------10----------|------5-----------------|
|7-----------------------|------------10----------|------5-----------------|
|7-----------------------|------------10----------|------5-----------------|

To be the light

 W                        H           H            E  E  H.                    
|------------------------|------------10b12=======|==r10-10b12=============|
|------------------------|------------------------|------------------------|
|------------------------|------------------------|------------------------|
|/15---------------------|(15)--------------------|------------------------|
|------------------------|------------------------|------------------------|
|------------------------|------------------------|------------------------|
|                        |                        |                        |
|------------------------|------------------------|------------------------|
|------------------------|------------------------|------------------------|
|------------------------|------------------------|------------------------|
|0-----------------------|------------3-----------|------5-----------------|
|0-----------------------|------------3-----------|------5-----------------|
|0-----------------------|------------3-----------|------5-----------------|

In the darkened world

Verse 2 (0:38-0:52)

     PM---|   PM---|    PM|   PM|   PM|
  E  E  E  E  E  E  E  E   E  E  E  E  E  E  E  E   E  E  Q.       E  E  E
|------------------------|------------------------|------------------------|
|------------------------|------------------------|------------------------|
|------------------------|------------------------|---9--7-----------------|
|7--------7--------7-----|10----10----------7--9--|10-------------10-9-----|
|---0--0-----0--0-----0--|---0-----0--8--10-------|---------------------10-|
|------------------------|------------------------|------------------------|
|                        |                        |                        | 
|------------------------|------------------------|------------------------| 
|------------------------|------------------------|------------------------|
|------------------------|------------------------|---12-10----------------|
|------------------------|------------------10-12-|14-------------14-12----|
|------------------------|------------12-14-------|---------------------14-|
|------------------------|------------------------|------------------------|

Many are willing

     PM---|   PM---|    PM|   PM|   PM|                       repeat 3 times
  E  E  E  E  E  E  E  E   E  E  E  E  E  E  E  E   E  E  Q.      E  E  E
|-------------------------|------------------------|------------------------|
|o------------------------|------------------------|-----------------------o|
|-------------------------|------------------------|---9--7-----------------|
|-7--------7--------7-----|10----10----------7--9--|10------------10-9------|
|o---0--0-----0--0-----0--|---0-----0--8--10-------|--------------------10-o|
|-------------------------|------------------------|------------------------|
|                         |                        |                        |
|-------------------------|------------------------|------------------------|
|o------------------------|------------------------|-----------------------o|
|-------------------------|------------------------|---12-10----------------|
|-10-------10-------10----|14----14----------10-12-|14------------14-12-----|
|o---0--0-----0--0-----0--|---0-----0--12-14-------|--------------------14-o|
|-------------------------|------------------------|------------------------|

To only live for themselves
Turning away from morality
Nothing can turn you now

Chorus (0:53-1:22)

 W                       E  E  E  E  H            Q     Q     Q     Q     
|------------------------|------------------------|------------------------|
|------------------------|------------------------|------------------------|
|------------------------|------------------------|------------------------|
|/7----------------------|(7)---7--9--10----------|(10)-/12----10----9-----|
|------------------------|---10-------------------|------------------------|
|------------------------|------------------------|------------------------|
|                        |                        |                        |
|------------------------|------------------------|------------------------|
|------------------------|------------------------|------------------------|
|------------------------|------------------------|------------------------|
|/10---------------------|(10)--10-12-14----------|(14)--/15---14----12----|
|------------------------|---14-------------------|------------------------|
|------------------------|------------------------|------------------------|
|                        |                        |                        |
|------------------------|------------------------|------------------------|
|------------------------|------------------------|------------------------|
|------------------------|------------------------|------------------------|
|7-----------------------|------------10----------|------5-----------------|
|7-----------------------|------------10----------|------5-----------------|
|7-----------------------|------------10----------|------5-----------------|

Now choose this day

 W                        H           Q     Q      Q     Q     Q     Q     
|------------------------|------------------------|------------------------|
|------------------------|------------------------|------------------------|
|------------------------|------------9-----7h9p7-|------------------------|
|------------------------|------------------------|10----9-----10----9-----|
|8-----------------------|(8)---------------------|------------------------|
|------------------------|------------------------|------------------------|
|                        |                        |                        |
|------------------------|------------------------|------------------------|
|------------------------|------------------------|------------------------|
|------------------------|------------12--10h12p10|------------------------|
|------------------------|------------------------|14----12----14----12----|
|12----------------------|(12)--------------------|------------------------|
|------------------------|------------------------|------------------------|
|                        |                        |                        |
|------------------------|------------------------|------------------------|
|------------------------|------------------------|------------------------|
|------------------------|------------------------|------------------------|
|0-----------------------|------------3-----------|------5-----------------|
|0-----------------------|------------3-----------|------5-----------------|
|0-----------------------|------------3-----------|------5-----------------|

Who you will serve

 W                        E  E  E  E  H            Q     Q     Q     Q     
|------------------------|------------------------|------------------------|
|------------------------|------------------------|------------------------|
|------------------------|------------------------|------------------------|
|/7----------------------|(7)---7--9--10----------|(10)-/12----10----9-----|
|------------------------|---10-------------------|------------------------|
|------------------------|------------------------|------------------------|
|                        |                        |                        |
|------------------------|------------------------|------------------------|
|------------------------|------------------------|------------------------|
|------------------------|------------------------|------------------------|
|/10---------------------|(10)--10-12-14----------|(14)--/15---14----12----|
|------------------------|---14-------------------|------------------------|
|------------------------|------------------------|------------------------|
|                        |                        |                        |
|------------------------|------------------------|------------------------|
|------------------------|------------------------|------------------------|
|------------------------|------------------------|------------------------|
|7-----------------------|------------10----------|------5-----------------|
|7-----------------------|------------10----------|------5-----------------|
|7-----------------------|------------10----------|------5-----------------|

To be the light

 W                        H           H            E  E  H.                    
|------------------------|------------10b12=======|==r10-10b12=============|
|------------------------|------------------------|------------------------|
|------------------------|------------------------|------------------------|
|/15---------------------|(15)--------------------|------------------------|
|------------------------|------------------------|------------------------|
|------------------------|------------------------|------------------------|
|                        |                        |                        |
|------------------------|------------10b12=======|==r10-10b12=============||
|------------------------|------------------------|------------------------|
|/14---------------------|(14)--------------------|------------------------|
|------------------------|------------------------|------------------------|
|------------------------|------------------------|------------------------|
|------------------------|------------------------|------------------------|
|                        |                        |                        |
|------------------------|------------------------|------------------------|
|------------------------|------------------------|------------------------|
|------------------------|------------------------|------------------------|
|0-----------------------|------------3-----------|------5-----------------|
|0-----------------------|------------3-----------|------5-----------------|
|0-----------------------|------------3-----------|------5-----------------|

In the darkened world

 W                        E  E  E  E  H            Q     Q     Q     Q     
|------------------------|------------------------|------------------------|
|------------------------|------------------------|------------------------|
|------------------------|------------------------|------------------------|
|/7----------------------|(7)---7--9--10----------|(10)-/12----10----9-----|
|------------------------|---10-------------------|------------------------|
|------------------------|------------------------|------------------------|
|                        |                        |                        |
|------------------------|------------------------|------------------------|
|------------------------|------------------------|------------------------|
|------------------------|------------------------|------------------------|
|/10---------------------|(10)--10-12-14----------|(14)--/15---14----12----|
|------------------------|---14-------------------|------------------------|
|------------------------|------------------------|------------------------|
|                        |                        |                        |
|------------------------|------------------------|------------------------|
|------------------------|------------------------|------------------------|
|------------------------|------------------------|------------------------|
|7-----------------------|------------10----------|------5-----------------|
|7-----------------------|------------10----------|------5-----------------|
|7-----------------------|------------10----------|------5-----------------|

You fail us all

 W                       H           Q     Q      Q     Q     Q     Q     
|------------------------|------------------------|------------------------|
|------------------------|------------------------|------------------------|
|------------------------|------------9-----7h9p7-|------------------------|
|------------------------|------------------------|10----9-----10----9-----|
|8-----------------------|(8)---------------------|------------------------|
|------------------------|------------------------|------------------------|
|                        |                        |                        |
|------------------------|------------------------|------------------------|
|------------------------|------------------------|------------------------|
|------------------------|------------12--10h12p10|------------------------|
|------------------------|------------------------|14----12----14----12----|
|12----------------------|(12)--------------------|------------------------|
|------------------------|------------------------|------------------------|
|                        |                        |                        |
|------------------------|------------------------|------------------------|
|------------------------|------------------------|------------------------|
|------------------------|------------------------|------------------------|
|0-----------------------|------------3-----------|------5-----------------|
|0-----------------------|------------3-----------|------5-----------------|
|0-----------------------|------------3-----------|------5-----------------|

And the waters beginning to rise

 W                        E  E  E  E  H            Q     Q     Q     Q     
|------------------------|------------------------|------------------------|
|------------------------|------------------------|------------------------|
|------------------------|------------------------|------------------------|
|/7----------------------|(7)---7--9--10----------|(10)-/12----10----9-----|
|------------------------|---10-------------------|------------------------|
|------------------------|------------------------|------------------------|
|                        |                        |                        |
|------------------------|------------------------|------------------------|
|------------------------|------------------------|------------------------|
|------------------------|------------------------|------------------------|
|/10---------------------|(10)--10-12-14----------|(14)--/15---14----12----|
|------------------------|---14-------------------|------------------------|
|------------------------|------------------------|------------------------|
|                        |                        |                        |
|------------------------|------------------------|------------------------|
|------------------------|------------------------|------------------------|
|------------------------|------------------------|------------------------|
|7-----------------------|------------10----------|------5-----------------|
|7-----------------------|------------10----------|------5-----------------|
|7-----------------------|------------10----------|------5-----------------|

Become the light

 W                        H           H            E  E  H.                    
|------------------------|------------10b12=======|==r10-10b12=============|
|------------------------|------------------------|------------------------|
|------------------------|------------------------|------------------------|
|/15---------------------|(15)--------------------|------------------------|
|------------------------|------------------------|------------------------|
|------------------------|------------------------|------------------------|
|                        |                        |                        |
|------------------------|------------10b12=======|==r10-10b12=============||
|------------------------|------------------------|------------------------|
|/14---------------------|(14)--------------------|------------------------|
|------------------------|------------------------|------------------------|
|------------------------|------------------------|------------------------|
|------------------------|------------------------|------------------------|
|                        |                        |                        |
|------------------------|------------------------|------------------------|
|------------------------|------------------------|------------------------|
|------------------------|------------------------|------------------------|
|0-----------------------|------------3-----------|------5-----------------|
|0-----------------------|------------3-----------|------5-----------------|
|0-----------------------|------------3-----------|------5-----------------|

In the darkened world

BreakDown (1:23-1:55)

    PM---|   PM---|   PM|    PM|   PM|   PM---|    PM---|   PM|   PM|   PM| 
 E  E  E  E  E  E  E  E   E  E  E  E  E  E  E  E   E  E  E  E  E  E  E  E   
|------------------------|------------------------|------------------------|
|------------------------|------------------------|------------------------|
|12-------12-------12----|12----12----9--------9--|------9-----9-----9-----|
|10-------10-------10----|10----10----10-------10-|------10----10----10----|
|---8--8-----8--8-----8--|---8-----8-----8--8-----|8--8-----8-----8-----8--|
|------------------------|------------------------|------------------------|

    PM---|   PM---|   PM|    PM|   PM|   PM---|    PM---|   PM|   PM|   PM| 
 E  E  E  E  E  E  E  E   E  E  E  E  E  E  E  E   E  E  E  E  E  E  E  E   
|------------------------|------------------------|------------------------|
|------------------------|------------------------|------------------------|
|9--------9--------9-----|9-----9-----7--------7--|------7-----7-----7-----|
|10-------10-------10----|10----10----9--------9--|------9-----9-----9-----|
|---0--0-----0--0-----0--|---0-----0-----0--0-----|0--0-----0-----0-----0--|
|------------------------|------------------------|------------------------|
|                        |                        |                        |
|------------------------|------------------------|------------------------|
|------------------------|------------------------|------------------------|
|------------------------|------------------------|------------------------|
|------------------------|------------------------|------------------------|
|------------------------|------------------------|------12sssssssssssss0--|
|------------------------|------------------------|------12sssssssssssss0--|


    PM---|   PM---|   PM|    PM|   PM|   PM---|    PM---|   PM|   PM|   PM| 
 E  E  E  E  E  E  E  E   E  E  E  E  E  E  E  E   E  E  E  E  E  E  E  E   
|------------------------|------------------------|------------------------|
|------------------------|------------------------|------------------------|
|12-------12-------12----|12----12----9--------9--|------9-----9-----9-----|
|10-------10-------10----|10----10----10-------10-|------10----10----10----|
|---8--8-----8--8-----8--|---8-----8-----8--8-----|8--8-----8-----8-----8--|
|------------------------|------------------------|------------------------|
|                        |                        |                        |
|------------------------|------------------------|------------------------|
|------------------------|------------------------|------------------------|
|------------------------|------------------------|------------------------|
|3-----------------------|(3)---------5-----------|(5)---------------------|
|3-----------------------|(3)---------3-----------|(3)---------------------|
|3-----------------------|(3)---------3-----------|(3)---------------------|

    PM---|   PM---|   PM|    PM|   PM|   PM---|    PM---|   PM|   PM|   PM| 
 E  E  E  E  E  E  E  E   E  E  E  E  E  E  E  E   E  E  E  E  E  E  E  E   
|------------------------|------------------------|------------------------|
|------------------------|------------------------|------------------------|
|9--------9--------9-----|9-----9-----7--------7--|------7-----7-----7-----|
|10-------10-------10----|10----10----9--------9--|------9-----9-----9-----|
|---0--0-----0--0-----0--|---0-----0-----0--0-----|0--0-----0-----0-----0--|
|------------------------|------------------------|------------------------|
|                        |                        |                        |
|------------------------|------------------------|------------------------|
|------------------------|------------------------|------------------------|
|------------------------|------------------------|------------------------|
|7-----------------------|(7)---------9-----------|(9)---------------------|
|7-----------------------|(7)---------7-----------|(7)---12sssssssssssss0--|
|7-----------------------|(7)---------7-----------|(7)---12sssssssssssss0--|


    PM---|   PM---|   PM|    PM|   PM|   PM---|    PM---|   PM|   PM|   PM| 
 E  E  E  E  E  E  E  E   E  E  E  E  E  E  E  E   E  E  E  E  E  E  E  E   
|-------------------------|------------------------|------------------------|
|o------------------------|------------------------|------------------------|
|-12-------12-------12----|12----12----9--------9--|------9-----9-----9-----|
|-10-------10-------10----|10----10----10-------10-|------10----10----10----|
|o---8--8-----8--8-----8--|---8-----8-----8--8-----|8--8-----8-----8-----8--|
|-------------------------|------------------------|------------------------|
|                         |                        |                        |
|-------------------------|------------------------|------------------------|
|o------------------------|------------------------|------------------------|
|-12-------12-------12----|12----12----9--------9--|------9-----9-----9-----|
|-10-------10-------10----|10----10----10-------10-|------10----10----10----|
|o---8--8-----8--8-----8--|---8-----8-----8--8-----|8--8-----8-----8-----8--|
|-------------------------|------------------------|------------------------|

    PM---|   PM---|   PM|    PM|   PM|   PM---|    PM---|   PM|   PM|   PM| 
 E  E  E  E  E  E  E  E   E  E  E  E  E  E  E  E   E  E  E  E  E  E  E  E   
|------------------------|------------------------|-------------------------|
|------------------------|------------------------|------------------------o|
|9--------9--------9-----|9-----9-----7--------7--|------7-----7-----7------|
|10-------10-------10----|10----10----9--------9--|------9-----9-----9------|
|---0--0-----0--0-----0--|---0-----0-----0--0-----|0--0-----0-----0-----0--o|
|------------------------|------------------------|-------------------------|
|                        |                        |                         |
|------------------------|------------------------|-------------------------|
|------------------------|------------------------|------------------------o|
|9--------9--------9-----|9-----9-----7--------7--|------7-----7-----7------|
|10-------10-------10----|10----10----9--------9--|------9-----9-----9------|
|---0--0-----0--0-----0--|---0-----0-----0--0-----|0--0-----0-----0-----0--o|
|------------------------|------------------------|-------------------------|

This is destiny
The choice is now defined 
No more deception
Now change will come

Clean Part (1:56-2:10)

 E  E  E  Q     E  E  E   E  Q     E  E  E  E  Q      E  E  E  E  Q     E
|12----------------------|------------12----------|------15----------------|
|------13----------------|------------------13----|------------13----------|
|---------14-------------|---------------------14-|---------------14-------|
|------------------------|------------------------|------------------------|
|------------------------|------------------------|------------------------|
|------------------------|------------------------|------------------------|
|                        |                        |                        |
|------------------------|------------------------|------------------------|
|------------------------|------------------------|------------------------|
|---------12-------------|---12----------------9--|---------------9--------|
|---10----------10----10-|---------10----10-------|---10----10----------10-|
|8-----8-----------8-----|8-----------8-----8-----|------8-----8-----------|
|------------------------|------------------------|------------------------|

It's in your hands

 E  E  E  Q     E  E  E   E  Q     E  E  E  E  Q      E  E  E  E  Q     E
|12----------------------|------------12----------|------15----------------|
|------13----------------|------------------13----|------------13----------|
|---------14-------------|---------------------14-|---------------14-------|
|------------------------|------------------------|------------------------|
|------------------------|------------------------|------------------------|
|------------------------|------------------------|------------------------|
|                        |                        |                        |
|------------------------|------------------------|------------------------|
|------------------------|------------------------|------------------------|
|---------9--------------|---9-----------------7--|---------------7--------|
|---10----------10----10-|---------10----10-------|---10----10----------10-|
|0-----0-----------0-----|0-----------0-----0-----|------0-----0-----------|
|------------------------|------------------------|------------------------|

 E  E  E  Q     E  E  E   E  Q     E  E  E  E  Q      E  E  E  E  Q     E
|10----------------------|------------10----------|------10----------------|
|------13----------------|------------------13----|------------13----------|
|---------12-------------|---------------------12-|---------------12-------|
|------------------------|------------------------|------------------------|
|------------------------|------------------------|------------------------|
|------------------------|------------------------|------------------------|
|                        |                        |                        |
|------------------------|------------------------|------------------------|
|------------------------|------------------------|------------------------|
|---------7--------------|---7-----------------7--|---------------7--------|
|---9-----------9-----9--|---------9-----9--------|---9-----9-----------9--|
|10----10----------10----|10----------10----10----|------10----10----------|
|------------------------|------------------------|------------------------|

It's in your hands

 E  E  E  Q     E  E  E   E  Q     E  H            W
|12----------------------|------------------------|------------------------|
|------13----------------|------------------------|------------------------|
|---------14-------------|------------------------|------------------------|
|------------------------|------------------------|------------------------|
|------------------------|------------------------|------------------------|
|------------------------|------------------------|------------------------|
|                        |                        |                        |
|------------------------|------------------------|------------------------|
|------------------------|------------------------|------------------------|
|---------12-------------|---12-------12----------|(12)--------------------|
|---10----------10----10-|---------10-10----------|(10)--------------------|
|8-----8-----------8-----|8-----------8-----------|(8)---------------------|
|------------------------|------------------------|------------------------|

Chorus (2:11-2:25)

 W                        E  E  E  E  H            Q     Q     Q     Q     
|------------------------|------------------------|------------------------|
|------------------------|------------------------|------------------------|
|------------------------|------------------------|------------------------|
|/7----------------------|(7)---7--9--10----------|(10)--/12---10----9-----|
|------------------------|---10-------------------|------------------------|
|------------------------|------------------------|------------------------|
|                        |                        |                        |
|------------------------|------------------------|------------------------|
|------------------------|------------------------|------------------------|
|------------------------|------------------------|------------------------|
|/10---------------------|(10)--10-12-14----------|(14)--/15---14----12----|
|------------------------|---14-------------------|------------------------|
|------------------------|------------------------|------------------------|
|                        |                        |                        |
|------------------------|------------------------|------------------------|
|------------------------|------------------------|------------------------|
|------------------------|------------------------|------------------------|
|------------------------|------------------------|------10----9----7------|
|------------------------|------------------------|------10----9----7------|
|------------------------|------------------------|------10----9----7------|

Now choose this day

 W                        H           Q     Q      Q     Q     Q     Q     
|------------------------|------------------------|------------------------|
|------------------------|------------------------|------------------------|
|------------------------|------------9-----7h9p7-|------------------------|
|------------------------|------------------------|10----9-----10----9-----|
|8-----------------------|(8)---------------------|------------------------|
|------------------------|------------------------|------------------------|
|                        |                        |                        |
|------------------------|------------------------|------------------------|
|------------------------|------------------------|------------------------|
|------------------------|------------12--10h12p10|------------------------|
|------------------------|------------------------|14----12----14----12----|
|12----------------------|(12)--------------------|------------------------|
|------------------------|------------------------|------------------------|
|                        |                        |                        |
|------------------------|------------------------|------------------------|
|------------------------|------------------------|------------------------|
|------------------------|------------------------|------------------------|
|0-----------------------|------------3-----------|------5-----------------|
|0-----------------------|------------3-----------|------5-----------------|
|0-----------------------|------------3-----------|------5-----------------|

Who you will serve

 W                        E  E  E  E  H            Q     Q     Q     Q     
|------------------------|------------------------|------------------------|
|------------------------|------------------------|------------------------|
|------------------------|------------------------|------------------------|
|/7----------------------|(7)---7--9--10----------|(10)-/12----10----9-----|
|------------------------|---10-------------------|------------------------|
|------------------------|------------------------|------------------------|
|                        |                        |                        |
|------------------------|------------------------|------------------------|
|------------------------|------------------------|------------------------|
|------------------------|------------------------|------------------------|
|/10---------------------|(10)--10-12-14----------|(14)-/15----14----12----|
|------------------------|---14-------------------|------------------------|
|------------------------|------------------------|------------------------|
|                        |                        |                        |
|------------------------|------------------------|------------------------|
|------------------------|------------------------|------------------------|
|------------------------|------------------------|------------------------|
|7-----------------------|------------10----------|------5-----------------|
|7-----------------------|------------10----------|------5-----------------|
|7-----------------------|------------10----------|------5-----------------|

To be the light


 W                        H           H            E  E   H.               
|------------------------|------------10b12=======|==r10-10b12=============|
|------------------------|------------------------|------------------------|
|------------------------|------------------------|------------------------|
|/15---------------------|(15)--------------------|------------------------|
|------------------------|------------------------|------------------------|
|------------------------|------------------------|------------------------|
|                        |                        |                        |
|------------------------|------------10b12=======|==r10-10b12=============||
|------------------------|------------------------|------------------------|
|/14---------------------|(14)--------------------|------------------------|
|------------------------|------------------------|------------------------|
|------------------------|------------------------|------------------------|
|------------------------|------------------------|------------------------|
|                        |                        |                        |
|------------------------|------------------------|------------------------|
|------------------------|------------------------|------------------------|
|------------------------|------------------------|------------------------|
|0-----------------------|------------3-----------|------5-----------------|
|0-----------------------|------------3-----------|------5-----------------|
|0-----------------------|------------3-----------|------5-----------------|

In the darkened world

Outro (2:26-2:55)

 W                        E  E  E  E  H            Q     Q     Q     Q     
|------------------------|------------------------|------------------------|
|------------------------|------------------------|------------------------|
|------------------------|------------------------|------------------------|
|/7----------------------|(7)---7--9--10----------|(10)--/12---10----9-----|
|------------------------|---10-------------------|------------------------|
|------------------------|------------------------|------------------------|
|                        |                        |                        |
|------------------------|------------------------|------------------------|
|------------------------|------------------------|------------------------|
|------------------------|------------------------|------------------------|
|7--------7--------7-----|7-----7-----10-------10-|------5-----5-----5-----|
|7--7--7--7--7--7--7--7--|7--7--7--7--10-10-10-10-|10-10-5--5--5--5--5--5--|
|7--7--7--7--7--7--7--7--|7--7--7--7--10-10-10-10-|10-10-5--5--5--5--5--5--|

It's in your hands

 W                        H           Q     Q      Q     Q     Q     Q     
|------------------------|------------------------|------------------------|
|------------------------|------------------------|------------------------|
|------------------------|------------9-----7h9p7-|------------------------|
|------------------------|------------------------|10----9-----10----9-----|
|8-----------------------|(8)---------------------|------------------------|
|------------------------|------------------------|------------------------|
|                        |                        |                        |
|------------------------|------------------------|------------------------|
|------------------------|------------------------|------------------------|
|------------------------|------------------------|------------------------|
|0--------0--------0-----|0-----0-----3--------3--|------5-----5-----5-----|
|0--0--0--0--0--0--0--0--|0--0--0--0--3--3--3--3--|3--3--5--5--5--5--5--5--|
|0--0--0--0--0--0--0--0--|0--0--0--0--3--3--3--3--|3--3--5--5--5--5--5--5--|

It's in your hands

 W                        E  E  E  E  H            Q     Q     Q     Q     
|------------------------|------------------------|------------------------|
|------------------------|------------------------|------------------------|
|------------------------|------------------------|------------------------|
|/7----------------------|(7)---7--9--10----------|(10)-/12----10----9-----|
|------------------------|---10-------------------|------------------------|
|------------------------|------------------------|------------------------|
|                        |                        |                        |
|                        |                        |                        |
|------------------------|------------------------|------------------------|
|------------------------|------------------------|------------------------|
|------------------------|------------------------|------------------------|
|7--------7--------7-----|7-----7-----10-------10-|------5-----5-----5-----|
|7--7--7--7--7--7--7--7--|7--7--7--7--10-10-10-10-|10-10-5--5--5--5--5--5--|
|7--7--7--7--7--7--7--7--|7--7--7--7--10-10-10-10-|10-10-5--5--5--5--5--5--|

Become the light 

 W                        H           H            E  E  H           Q         
|------------------------|------------10b12=======|==r10-10b12=======------|
|------------------------|------------------------|------------------------|
|------------------------|------------------------|------------------------|
|/15---------------------|(15)--------------------|------------------5-----|
|------------------------|------------------------|------------------5-----|
|------------------------|------------------------|------------------5-----|
|                        |                        |                        |
|------------------------|------------10b12=======|==r10-10b12=============|
|------------------------|------------------------|------------------------|
|------------------------|------------------------|------------------------|
|0-----------------------|------------------------|------------------------|
|0-----------------------|------------------------|------------------------|
|0-----------------------|------------------------|------------------------|

In this darkened world

 W                        W                        W
|------------------------|------------------------|------------------------|
|------------------------|------------------------|------------------------|
|------------------------|------------------------|------------------------|
|7-----------------------|(7)---------------------|(7)---------------------|
|7-----------------------|(7)---------------------|(7)---------------------|
|7-----------------------|(7)---------------------|(7)---------------------|
|                        |                        |                        |
|------------------------|------------------------|------------------------|
|------------------------|------------------------|------------------------|
|------------------------|------------------------|------------------------|
|10----------------------|(10)--------------------|(10)--------------------|
|12----------------------|(12)--------------------|(12)--------------------|
|------------------------|------------------------|------------------------|

Suggest correction
Creating personal tab
Creating personal tab
You can edit any tab online and save it as your Personal.

You can edit, replace or remove any tab part or add personal notes – all changes will be seen only by you.

Personal tabs can be accessed anytime from any device, even offline.
Learn more »
comments
print report bad tab
1 comment total.
+1 reply
PhilipWT 30 Aug 24, 2011 03:54 PM

Sounds perfect man, good job!

guest
You may want to rate the tab now too:
select rating
Wanna post a correction for this tab? Suggest correction