Oops, an error
Loading. Please wait.

My Curse Bass Tab

version 1
version 1
48,567 views 36 this week
4 commentsread comments
1 2 3 4 5
x 5
add to favorites
launch autoscroll
font size
0
reset
guitar tuner
×
Best way to learn
"My Curse"
Autoscroll
slow
fast
+/-
esc
set tempo
stop
Author
Tuning
Great song, there are a couple of bits i couldn't transcribe so if you know them please tell me.
Clean Intro:
Guitar Only

[Intro/Chorus]
F|-----------------------------------|
C|-----------------------------------|
G|-------10-------5-------5-------5--|(x2)
C|-888888---555555--000000--000000---|

[Pre-Verse](second time through play)
F|-------------|
C|-------------|
G|-------------|
C|-0(Let Ring)-

[Verse]
F|------------------------|  (if you find that fill at the end a bit too hard
C|------------------------|   just play open notes, it sounds the same)
G|-3--3-----------5-------|(x7)
C|--00-00600500307-765035-|

[Pre-Chorus]
F|-------------------------------|  (second time it's played, insert the 
C|-------------------------------|   verse fill at the end (Y))
G|-------------------------------|(x4)
C|-000-000-000-000-300000300000--|

[Intro/Chorus]
F|-----------------------------------|
C|-----------------------------------|
G|-------10-------5-------5-------5--|(x2)
C|-888888---555555--000000--000000---|

[Break]
[No Bass]
[Breakdown]
F|-----------------------------------------------|
C|-----------------------------------------------|
G|-----------------------------------------------|(x2)
C|-8888888888-5555555555-0000000000-00000000000--|

[Interlude](when Adam starts singing :D)
F|------------------------------------|
C|-10---10---10----10----10---10---10-|
G|---87---87---107---107---87---87----|
C|------------------------------------|

************************************

| (Let Ring) 

************************************
Suggest correction
comments
print report bad tab
4 comments total. Showing first comments.
0 reply
Naruto_x 10 Dec 07, 2006 05:03 AM

Neat..

-2 reply
totalxanarchy 212 Jun 26, 2007 10:56 AM

k at the beginnig it shud just be
G --------------------------------
D --------------------------------
G -------------------------------5
C -8-8-8-8-8~--5-5-5-5-5~0-0-0-0--

u put in some extra notes that i dont think are there.

then the main riff, the 3 u put on the G shud be on the C.
Then on the 2nd time, the end fill shud be

G -------------
D -------------
G -------------
C 6-2-6-5-4-0-2

everything else is good. awesome song.

0 reply
Futilaty 10 Feb 05, 2008 12:05 PM

the chorus is minorly wrong...
its
F|--------------------------------|
C|--------------------------------|
G|------8-------5-------5-------5-|
C|888888--555555--000000--000000--|

Mike D'Antonio tabbed it out himself in the January 2007 issue of Bass Guitar Magazine

guest
You may want to rate the tab now too:
select rating
Wanna post a correction for this tab? Suggest correction