Oops, an error
Loading. Please wait.
We have an official My Curse tab made by UG professional guitarists. Check out the tab »
×
19,822 views 6 this week
9 commentsread comments
1 2 3 4 5
x 14
add to favorites
×
Save as Personal and add changes to this tab that will be seen only by you. Learn more ›
×
You can save this tab as Personal to edit and correct it or add notes. All changes will be seen only by you. Learn more »
launch autoscroll
font size
0
reset
guitar tuner
backing track
0:00
0:00
edit
Autoscroll
slow
fast
+/-
esc
set tempo
stop
My Curse
Killswitch Engage
Bassist: Mike D
Submitted: rudie_#1

Drop C
C,G,C,F

Guitar Open

Intro/Chorus
F|------------------------------------------------|
C|------------------------------------------------|  X2
G|--------10---------8-----------5---------5------|
C|88888888---55555555---00000000---00000000-------|

|-------
|-------  Let Ring!!
|------- 
|--0~---

Verse
F|---------------------|
C|---------------------|  X4    
G|33--33---------------| 
C|--00--00-006655330000| 

Pre-Chrous
F|------------------------------------------------------|
C|------------------------------------------------------|  X2
G|------------------------------------------------------|
C|-000-000-000-000-300000300000--000-000-000-30000065300|

Chorus x2
Verse x4
Pre-Chorus x4
Chorus x2

Break
-I Usually Play This-

F|----------------|
C|----------------|
G|---10~---8~-----|
C|-8~---5~---0~---|


Breakdown
F|-----------------------------------------------|
C|-----------------------------------------------|
G|-----------------------------------------------| x2
C|-8888888888-5555555555-0000000000-00000000000--|

Interlude
F|--------------------------------------------|
C|------10------10-----10-----10--------------|  X2
G|--------------------------------------------|
C|-88888---55555--00000--0000-----------------|

Play Chorus Until Fade


Enjoi \m/X_x\m/



            
            
Suggest correction
Creating personal tab
Creating personal tab
You can edit any tab online and save it as your Personal.

You can edit, replace or remove any tab part or add personal notes – all changes will be seen only by you.

Personal tabs can be accessed anytime from any device, even offline.
Learn more »
comments
print report bad tab
9 comments total. Showing first comments.
0 reply
Satan Man 1,286 Feb 23, 2007 09:30 AM

On the verse

F|---------------------|
C|---------------------|
G|33--33---------------|
C|--00--00-006655330000|

after

6655330000

there is a fill!

wot the **** is it dude?

u missed it out!

apart from that great tab!

0 reply
Satan Man 1,286 Feb 27, 2007 06:51 AM

Oh yeah. What about the bit when adam starts singing?

-1 reply
t1rider 52 Mar 23, 2007 04:33 PM

My tab is better ver 3

guest
You may want to rate the tab now too:
select rating
Wanna post a correction for this tab? Suggest correction